Bots - Wat Zullen We Drinken tab

E-----------------------------------------------------|
B-----------------------------------------------------|
G--12-12--10------10-------------------12-12--10------|
D-------------14------12--10--12-----------------14---|
A-----------------------------------------------------|
E-----------------------------------------------------|


E-------------------------------------------------------|
B-------------------------------------------------------|
G--12-12--10------10------------------------------------|
D-------------14------12--14--10--12--------------------|
A-------------------------------------------------------|
E-------------------------------------------------------|


E---------------------------------|
B---------------------------------|
G---------------------------------|
D--10--15--17--19--19--20--17--19-|
A---------------------------------|
E---------------------------------|

E-----------------------------------------------------|
B-----------------------------------------------------|
G--12-12--10------10-------------------12-12--10------|
D-------------14------12--10--12-----------------14---|
A-----------------------------------------------------|
E-----------------------------------------------------|


E-------------------------------------------------------|
B-------------------------------------------------------|
G--12-12--10------10------------------------------------|
D-------------14------12--14--10--12--------------------|
A-------------------------------------------------------|
E-------------------------------------------------------|

//Lordhelmet
Tap to rate this tab
 
# A B C D E F G H I J K L M N O P Q R S T U V W X Y Z