Song name
# A B C D E F G H I J K L M N O P Q R S T U V W X Y Z

Bots - Zeven Dagen Lang tab

Zeven Dagen Lang (The Bots)

Key: Am


Solo:

E|----------------------------------------|
B|-3-3-0-1-------3-3-1-0-3-3p1p0-1---0----|
G|---------2-0-2-------------------2---0-2|
D|----------------------------------------|
A|----------------------------------------|
E|----------------------------------------|

-------0-0-1---0-------------------------------------------||
-0-1-3-------3---3-3-0-1--------3-3-1-0-3-3p1p0-1---0------||
-------------------------2-0-2--------------------2---0--2-||
-----------------------------------------------------------||
-----------------------------------------------------------||
-----------------------------------------------------------||




                Am     G
Wat zullen we drinken, zeven dagen lang
                F       G       Am
Wat zullen we drinken, wat een dorst


   F     C        G    C  
Er is genoeg voor iedereen
      G         Am
Dus drinken we samen
                 G
Sla het vat maar aan
                F      G      Am
Ja, drinken we samen, niet alleen




Dan zullen we werken, zeven dagen lang
Dan zullen we werken voor elkaar

Dan is er werk voor iedereen
Dus werken we samen
Zeven dagen lang
Dus werken we samen, niet alleen

Eerst moeten we vechten
Niemand weet hoelang
Eerst moeten we vechten
Voor ons belang

Voor het geluk van iedereen
Dus vechten we samen, samen staan we sterk
Dus vechten we samen, niet alleen
Tap to rate this tab
# A B C D E F G H I J K L M N O P Q R S T U V W X Y Z