Song name
# A B C D E F G H I J K L M N O P Q R S T U V W X Y Z

Bottle Rockets - Sunday Sports tab

Artist: Bottle Rockets
Song: Sunday Sports
Album: The Brooklyn Side

tabbed by: Eric Lambrecht
~~~~~~~~
Notes:
/	Slide
^	Hammer On
~	Let Ring
b	Bend
/-3-\	Triplet
*fast*  double time (16th instead of 8th)

* Both Guitars with Phaser/Filter..

Rhythm-G.:
           a               e
e:------|----------------------------------|
b:------|-----(1)-(1)(1)--(3)(3)-(3)-------|
G:------|*-----2---2--2---(0)(0)-(0)------*|
D:------|*-----2---2--2----2--2---2-------*|
A:--3-2-|--0---0---0--0----2--2---2---3-2--|
E:------|------------------0--0---0--------|

Lead-G.:
    a              e                 a               e
e:|---------------------------------|----------------------------------|
b:|-/5---3---1------3-1---0---------|-------------0-1-0---------/5-5-5-|
G:|--------------2------------0-----|-----0---2---------0---0----------|
D:|-------------------------------2-|-~(2)-----------------------------|
A:|---------------------------------|----------------------------------|
E:|---------------------------------|----------------------------------|

e:---------------------------------|----------------------------------||
b:-5/8-8\5-5---5-3-5-3-1-0---------|-------------0-1-0----------------||
G:---------------------------0-----|-----0---2---------0---0----------||
D:-------------------------------2-|-~(2)-----------------------------||
A:---------------------------------|----------------------------\-----||
E:---------------------------------|----------------------------\-----||

Rhythm2:
   a         G             F            e
e:-0-------|-3-----------|-1----------|-0----0-----|
b:-1-------|-0-----------|-1----------|-0----0-----|
G:-2-------|-0-----------|-2----------|-0------0---|
D:-2-------|-0---------0-|-3----------|-2--------2-|
A:-0-------|-2-----0-2---|-3----------|-2----------|
E:---------|-3-----------|-1----------|-0----------|

e:-0-------|-3-----------------|-----------------|---0-0---0-0------|
b:-1-------|-0-----------------|---1-1-----1-1---|---0-0---0-0------|
G:-2-------|-0-----------------|---2-2-----2-2---|---0-0---0-0---0--|
D:-2-------|-0-------0---2-0---|-3-3-3-----3-3---|-2-----2-------2--|
A:-0-------|-2---0-2---------2-|-3-----3-3-------|-2-----2-----2----|
E:---------|-3-----------------|-1-----1-1-----0-|-0-----0-----0----|

Solo:

e:|------5-5---5-5-7-8-7---------5-|-----5----------------------|
b:|-5~~--5-5---5-5-------8---5~~-5-|-5~~-5---------------8~--8~-|
G:|-7b9------7---------------7b9---|-7b9---9b7-5---5-7b9---9----|
D:|--------------------------------|-------------7--------------|
A:|--------------------------------|----------------------------|
E:|--------------------------------|----------------------------|
                   /-3-\                               
e:-----------------------------------|-------------------------------|
b:-----------------------------------|-------------------------------|
G:-7/5-4-5-4-------------------------|-------------------------------|
D:-----------7-5---5^7^5-------------|---------0-2-0-2-/3-2-0-2~-----|
A:---------------7-------7-5---3-2---|-0---2-3-----------------------|
E:---------------------------------3-|-------------------------------|
                                                /-3-\
e:------------------------------------|---------------------------------------|
b:------------------------------------|---------------------------------------|
G:------0-00------0-0---0-2-0---------|-----0-2-0^2^0---0-2-3-2-0-------------|
D:-20-0-0-00-20-0-0-0-2-------3-2-0---|-0-2-----------2-----------3-2-0---0-2~|
A:------------------------------------|---------------------------------3-----|
E:------------------------------------|---------------------------------------|

             *fast*
e:-------------------------------|----------------8------8-10-8-12b13-12b13~~-||
b:-----------------5/6-5-5~~-5/8-|-8^10^8-10-8-10---8^10----------------------||
G:-------5/7-7^5^7---------------|--------------------------------------------||
D:~~-5/7-------------------------|--------------------------------------------||
A:-------------------------------|--------------------------------------------||
E:-------------------------------|--------------------------------------------||

Solo2:                                                      *fast*
e:|----5----5----5----5-7-8-7---------5-|--------------------------------------|
b:|----5----5----5----5-------8---5~~-5-|--------------------------------------|
G:|-7b9--7b9--7b9--7b9------------7b9---|-9-9b7-5-4-5-4------------------------|
D:|-------------------------------------|---------------7-5-7^5----------------|
A:|-------------------------------------|-----------------------7-5-7~---5-3-2-|
E:|-------------------------------------|--------------------------------------|
                   /-3-\                               
e:-----------------------------------|--------------------------------||
b:-----------------------------------|-1^0-3-1-0----------------------||
G:---------------0------0-2-0---0----|-----------2-0------------------||
D:-------------0---2----------2------|---------------2-0-2^0--0-2~~---||
A:-0---2---3-------------------------|----------------------3---------||
E:-----------------------------------|--------------------------------||


Order
=====
Intro:	[Rhythm]
	[Rhythm]+[Lead]
Verse1:	[Rhythm]
Chorus:	[Rhythm2]
Solo:	[Solo]
Verse 2:[Rhythm]
Chorus:	[Rhythm2] 2x
	[Rhythm]+[Lead]
Solo 2:	[Solo2]
	[Rhythm]
Tap to rate this tab
# A B C D E F G H I J K L M N O P Q R S T U V W X Y Z