Song name
# A B C D E F G H I J K L M N O P Q R S T U V W X Y Z

Bottlerockit - Duddle-a-duh tab

Bottlerockit - Duddle-A-Duh
Album - Angel On A Vespa
Tabbed by: Ben Gillan

Easy

/=Slide up
h=hammer on
P.M....=Palm Mute and strum 4

Intro and verse 

1|-------------------------------------------------------------------|
2|-------------------------------------------------------------------|
3|--9/16----16-----9/16----16--------12/14--14-----7/9-------9-------|
4|--10/17---17-----10/17---17--------14/16--16-----8/10-----10-------| X6
5|-------------------------------------------------------------------|
6|-------------------------------------------------------------------|
            P.M....                         P.M....                   

Chorus
  
  A                  C                G                D
1|----------------------------------------------------------------------|
2|----------------------------------------------------------------------|
3|-------------------5-5-5-5-5-5-5-5-------------------7-7-7-7-7-7-7-7--|
4|--2-2-2-2-2-2-2-2--5-5-5-5-5-5-5-5--5-5-5-5-5-5-5-5--7-7-7-7-7-7-7-7--|X2
5|--0-0-0-0-0-0-0-0--3-3-3-3-3-3-3-3--5-5-5-5-5-5-5-5--5-5-5-5-5-5-5-5--|
6|------------------------------------3-3-3-3-3-3-3-3-------------------|

*On the second time through, only play the last power chord 5 times, not 8.

1|----------------------------------------------------------------------|
2|----------------------------------------------------------------------|
3|----------------------------------------------------------------------|
4|--17-14---17-14---17-14-14--17-14-14--17--19--17--16--14--------------|
5|----------------------------------------------------------------------|
6|----------------------------------------------------------------------|

1|----------------------------------------------------------------------|
2|----------------------------------------------------------------------|
3|----------------------------------------------------------------------|
4|--17-14--17-14-14--17-14-14--17--19--17--16--14-----------------------|
5|----------------------------------------------------------------------|
6|----------------------------------------------------------------------|

1|----------------------------------------------------------------------|
2|----------------------------------------------------------------------|
3|----------------------------------------------------------------------|
4|--17-14--17-14-14--17-14-14--17/19--17--16--16h17--14-----------------|
5|----------------------------------------------------------------------|
6|----------------------------------------------------------------------|

1|----------------------------------------------------------------------|
2|----------------------------------------------------------------------|
3|----------------------------------------------------------------------|
4|--17-14--17-19-17-16-17-16-14-----------------------------------------|
5|----------------------------------------------------------------------|
6|----------------------------------------------------------------------|

The solo starts in the 3rd chorus

And thats it. Fairly simple
Tap to rate this tab
# A B C D E F G H I J K L M N O P Q R S T U V W X Y Z