Boudewijn De Groot - Meneer De President tab

Boudewijn de Groot- Meneer de President intro (rest of song runs kinda the same)

e|---------------------------------------------|
b|----5------5----6---6--5-----5----6----------|
g|--------5---------7--------5-----------------|
d|---------------------------------------------|
a|----3------------------3---------------------|
E|----------------6-----------------6----------|


e|-----------------6-------------------------------------------|
b|----5-------5--------6------11----8h11p8---5------5-5-----5--|
g|--------5---------------7-----------------------5-------5----|
d|-------------------------------------------------------------|
a|----3-----------------------8--------------3--3-----3-3------|
E|-----------------6-------------------------------------------|
Tap to rate this tab
 
# A B C D E F G H I J K L M N O P Q R S T U V W X Y Z