Song name
# A B C D E F G H I J K L M N O P Q R S T U V W X Y Z

Bouncing Souls - Here We Go tab

HERE WE GO! - Bouncing Souls

By:(gutrpunx@hotmail.com) mitchell

Intro... Here We Go!... (listen to song to get the beat)
e|---------------------------------------------------------------------------|
B|---------------------------------------------------------------------------|
G|---------------------------------------------------------------------------|
D|--7---------7-x-----play 4 times-------------------------------------------|
A|--5----7----5-x------------------------------------------------------------|
E|-------5-------------------------------------------------------------------|
 P.M.................	P.M............... 

Verse:
e|---------------------------------------------------------------------------|
B|---------------------------------------------------------------------------|
G|---------------------------------------------------------------------------|
D|-7---------7---4x-----11----------11--4x-----------------------------------|
A|-5----7----5----------9-----11----9----------------------------------------|
E|------5---------------------9----------------------------------------------|

Chorus:
e|---------------------------------------------------------------------------|
B|---------------------------------------------------------------------------|
G|---------------------------------------------------------------------------|
D|--7---------7-x-----2x-----------------------------------------------------|
A|--5----7----5-x------------------------------------------------------------|
E|-------5-------------------------------------------------------------------|

Go Back To Verse

Little Riff Thingie:
e|---------------------------------------------------------------------------|
B|---------------------------------------------------------------------------|
G|---------------------------- 5---------------------------------------------|
D|--5-2-2---2-2-5-2-2-----------5-5-3-2--------------------------------------|
A|--------5-----------5-3-3--3----------5-3----------------------------------|
E|---------------------------------------------------------------------------|
Tap to rate this tab
# A B C D E F G H I J K L M N O P Q R S T U V W X Y Z