Song name
# A B C D E F G H I J K L M N O P Q R S T U V W X Y Z

Bouncing Souls - Born To Lose tab

---------------------------------------------------------------------------
			     Born to lose - Bouncing Souls
---------------------------------------------------------------------------
Tabbed by:jd	
Email:j_________d@hotmail.com (9underscores)

Tuning:standard

   intro
e|---------------------------------------------------------------|
B|---------------------------------------------------------------|
G|--------------------------------3-------3-------3--------------|
D|-3-3-2----0---------------3-3-3-3-3-3-3-3-3-3-3-3-3------------|
A|------------3------0-1----3-3-3-1-3-3-3-1-3-3-3-1-3------------|
E|-----------------------3--1-1-1---1-1-1---1-1-1---1------------|

    verse (palm muting)
e|----------------------------------------------------------------------|
B|----------------------------------------------------------------------|
G|--------3------------3----------------------3------5------------------|
D|-3------3------3-----3-------3-------3------3------5------3-----------|
A|-3------1------3-----1-------3-------3------1------3------3-----------|
E|-1-------------1-------------1-------1--------------------1-----------|
   born.. lived..vain..dreams..pain..  life.. blue.. lose.. you

e|-----------------------------------|
B|-----------------------------------|
G|-------3-------3-------3-----------|
D|-3-3-3-3-3-3-3-3-3-3-3-3-3---------|
A|-3-3-3-1-3-3-3-1-3-3-3-1-3---------|
E|-1-1-1---1-1-1---1-1-1---1---------|

 lather rinse REPEAT!



| /  slide up
| \  slide down
| h  hammer-on
| p  pull-off
| ~  vibrato
| +  harmonic
| x  Mute note
============================================================================
Tap to rate this tab
# A B C D E F G H I J K L M N O P Q R S T U V W X Y Z