Guitaretab - guitar tabs
Song name
# A B C D E F G H I J K L M N O P Q R S T U V W X Y Z

Bouncing Souls - Gone tab

Artist : The Bouncing Souls
Song : Gone
Album : How I Spent My Summer Vacation
Tuning : Standard
Tabbed By : Aaron Kunde

. = Palm muted
X = touch strings lightly

Intro ( lead )
|-----------------------------------------------------------------|x4
|-9-9-9-7-7-7-6-6-6-7-7-7-6-6-6-6-7-7-7-6-6-6-7-7-7-6-6-6-7-6-6-6-|
|-6-6-6-6-6-6-6-6-6-6-6-6-6-6-6-6-6-6-6-6-6-6-6-6-6-6-6-6-6-6-6-6-|
|-----------------------------------------------------------------|
|-----------------------------------------------------------------|
|-----------------------------------------------------------------|

( rhythm )
|-------------------------------------------------------------------|x2
|-------------------------------------------------------------------|
|-6-6-6-6-6-6-6-6-6-6-6-6-6-6-6-6-----------------------------------|
|-6-6-6-6-6-6-6-6-6-6-6-6-6-6-6-6--4-4-4-4-4-4-4-4--6-6-6-6-6-6-6-6-|
|-4-4-4-4-4-4-4-4-4-4-4-4-4-4-4-4--4-4-4-4-4-4-4-4--6-6-6-6-6-6-6-6-|
|----------------------------------2-2-2-2-2-2-2-2--4-4-4-4-4-4-4-4-|

|-------------------------------------------------------------------|x2
|-------------------------------------------------------------------|
|-------------------------------------------------------------------|
|-------------------------------------------------------------------|
|-------------------------------------------------------------------|
|-9--------------------------------2----------------4---------------|

Verse ( both guitars )
|--------------------------------------------------|
|--------------------------------------------------|
|--------------------------------------------------|
|-6-6-6-6-6-6-6-6-6-6-6-6--------------------------|
|-4-4-4-4-4-4-4-4-4-4-4-4--6-6-6-6-6-6-6-6-6-6-6-6-|
|--------------------------4-4-4-4-4-4-4-4-4-4-4-4-|
  . .   . .   . .   . .    . .   . .   . .   . . 

---------------------------------------------------
---------------------------------------------------
---------------------------------------------------
-6-6-6-6-6-6-6-6-6-6-6-6---------------------------
-4-4-4-4-4-4-4-4-4-4-4-4--6-6-6-6-6-6-6-6-6-6-6-6--
--------------------------4-4-4-4-4-4-4-4-4-4-4-4--
 . .   . .   . .   . .    . .   . .   . .   . . 

--------------------------------------------------------------------------------------------------------|
--------------------------------------------------------------------------------------------------------|
--------------------------------------------------------------------------------------------------------|
-6-6-6-6-6-6----------------6-6-6-6-6-6-------------------------------6-6-6-6-6-6-----------------------|
-4-4-4-4-4-4---6-6-6-6-6-6--4-4-4-4-4-4---6-6-6-6-6-6---4-4-4-4-4-4---4-4-4-4-4-4---6-6-6-6-6-6-6-6-6-6-|
---------------4-4-4-4-4-4----------------4-4-4-4-4-4---2-2-2-2-2-2-----------------4-4-4-4-4-4-4-4-4-4-|
 . .   . .     . .   . .    . .   . .     . .   . .     . .   . .     . .   . .     . .   . . . . . 

Pre Chorus ( both guitars )
|---------------------------------------------------------------------------------------------------------------------------|
|---------------------------------------------------------------------------------------------------------------------------|
|---------------------------------------------------------------------------------------------------------------------------|
|-6-X-6-6-X-X-----------------------------------------------------6-X-6-6-X-X-----------------------------------------------|
|-4-X-4-4-X-X-6-X-6-6-X-X--4-X-4-4-X-X--6-X-6-6-X-X--4-X-4-4-X-X--4-X-4-4-X-X-4-4-4-4-4-4-4-4-6-6-6-6-6-6-6-6-6-6-6-6-6-6-6-|
|-------------4-X-4-4-X-X--2-X-2-2-X-X--4-X-4-4-X-X--2-X-2-2-X-X--------------2-2-2-2-2-2-2-2-4-4-4-4-4-4-4-4-4-4-4-4-4-4-4-|
                                                                                                . . . . . . . . . . . . . 
Chorus ( lead )
|-----------------------------------------------------------------|x4
|-9-9-9-7-7-7-6-6-6-7-7-7-6-6-6-6-7-7-7-6-6-6-7-7-7-6-6-6-7-6-6-6-|
|-6-6-6-6-6-6-6-6-6-6-6-6-6-6-6-6-6-6-6-6-6-6-6-6-6-6-6-6-6-6-6-6-|
|-----------------------------------------------------------------|
|-----------------------------------------------------------------|
|-----------------------------------------------------------------|

( rhythm )
|-------------------------------------------------------------------|x2
|-------------------------------------------------------------------|
|-6-6-6-6-6-6-6-6-6-6-6-6-6-6-6-6-----------------------------------|
|-6-6-6-6-6-6-6-6-6-6-6-6-6-6-6-6--4-4-4-4-4-4-4-4--6-6-6-6-6-6-6-6-|
|-4-4-4-4-4-4-4-4-4-4-4-4-4-4-4-4--4-4-4-4-4-4-4-4--6-6-6-6-6-6-6-6-|
|----------------------------------2-2-2-2-2-2-2-2--4-4-4-4-4-4-4-4-|
[ Tab from: http://www.guitaretab.com/b/bouncing-souls/145429.html ]
|-------------------------------------------------------------------|x2
|-------------------------------------------------------------------|
|-------------------------------------------------------------------|
|-------------------------------------------------------------------|
|-------------------------------------------------------------------|
|-9--------------------------------2----------------4---------------|

Verse ( both guitars )
|--------------------------------------------------|
|--------------------------------------------------|
|--------------------------------------------------|
|-6-6-6-6-6-6-6-6-6-6-6-6--------------------------|
|-4-4-4-4-4-4-4-4-4-4-4-4--6-6-6-6-6-6-6-6-6-6-6-6-|
|--------------------------4-4-4-4-4-4-4-4-4-4-4-4-|
  . .   . .   . .   . .    . .   . .   . .   . . 

---------------------------------------------------
---------------------------------------------------
---------------------------------------------------
-6-6-6-6-6-6-6-6-6-6-6-6---------------------------
-4-4-4-4-4-4-4-4-4-4-4-4--6-6-6-6-6-6-6-6-6-6-6-6--
--------------------------4-4-4-4-4-4-4-4-4-4-4-4--
 . .   . .   . .   . .    . .   . .   . .   . . 

--------------------------------------------------------------------------------------------------------|
--------------------------------------------------------------------------------------------------------|
--------------------------------------------------------------------------------------------------------|
-6-6-6-6-6-6----------------6-6-6-6-6-6-------------------------------6-6-6-6-6-6-----------------------|
-4-4-4-4-4-4---6-6-6-6-6-6--4-4-4-4-4-4---6-6-6-6-6-6---4-4-4-4-4-4---4-4-4-4-4-4---6-6-6-6-6-6-6-6-6-6-|
---------------4-4-4-4-4-4----------------4-4-4-4-4-4---2-2-2-2-2-2-----------------4-4-4-4-4-4-4-4-4-4-|
 . .   . .     . .   . .    . .   . .     . .   . .     . .   . .     . .   . .     . .   . . . . . 

Pre Chorus ( both guitars )
|---------------------------------------------------------------------------------------------------------------------------|
|---------------------------------------------------------------------------------------------------------------------------|
|---------------------------------------------------------------------------------------------------------------------------|
|-6-X-6-6-X-X-----------------------------------------------------6-X-6-6-X-X-----------------------------------------------|
|-4-X-4-4-X-X-6-X-6-6-X-X--4-X-4-4-X-X--6-X-6-6-X-X--4-X-4-4-X-X--4-X-4-4-X-X-4-4-4-4-4-4-4-4-6-6-6-6-6-6-6-6-6-6-6-6-6-6-6-|
|-------------4-X-4-4-X-X--2-X-2-2-X-X--4-X-4-4-X-X--2-X-2-2-X-X--------------2-2-2-2-2-2-2-2-4-4-4-4-4-4-4-4-4-4-4-4-4-4-4-|
                                                                                                . . . . . . . . . . . . . 
Chorus ( lead )
|-----------------------------------------------------------------|x4
|-9-9-9-7-7-7-6-6-6-7-7-7-6-6-6-6-7-7-7-6-6-6-7-7-7-6-6-6-7-6-6-6-|
|-6-6-6-6-6-6-6-6-6-6-6-6-6-6-6-6-6-6-6-6-6-6-6-6-6-6-6-6-6-6-6-6-|
|-----------------------------------------------------------------|
|-----------------------------------------------------------------|
|-----------------------------------------------------------------|

( rhythm )
|-------------------------------------------------------------------|x2
|-------------------------------------------------------------------|
|-6-6-6-6-6-6-6-6-6-6-6-6-6-6-6-6-----------------------------------|
|-6-6-6-6-6-6-6-6-6-6-6-6-6-6-6-6--4-4-4-4-4-4-4-4--6-6-6-6-6-6-6-6-|
|-4-4-4-4-4-4-4-4-4-4-4-4-4-4-4-4--4-4-4-4-4-4-4-4--6-6-6-6-6-6-6-6-|
|----------------------------------2-2-2-2-2-2-2-2--4-4-4-4-4-4-4-4-|

|-------------------------------------------------------------------|x2
|-------------------------------------------------------------------|
|-------------------------------------------------------------------|
|-------------------------------------------------------------------|
|-------------------------------------------------------------------|
|-9--------------------------------2----------------4---------------|

Chorus ( lead )
|-----------------------------------------------------------------| Repeat until faded out
|-9-9-9-7-7-7-6-6-6-7-7-7-6-6-6-6-7-7-7-6-6-6-7-7-7-6-6-6-7-6-6-6-|
|-6-6-6-6-6-6-6-6-6-6-6-6-6-6-6-6-6-6-6-6-6-6-6-6-6-6-6-6-6-6-6-6-|
|-----------------------------------------------------------------|
|-----------------------------------------------------------------|
|-----------------------------------------------------------------|

( rhythm )
|-------------------------------------------------------------------|x2
|-------------------------------------------------------------------|
|-6-6-6-6-6-6-6-6-6-6-6-6-6-6-6-6-----------------------------------|
|-6-6-6-6-6-6-6-6-6-6-6-6-6-6-6-6--4-4-4-4-4-4-4-4--6-6-6-6-6-6-6-6-|
|-4-4-4-4-4-4-4-4-4-4-4-4-4-4-4-4--4-4-4-4-4-4-4-4--6-6-6-6-6-6-6-6-|
|----------------------------------2-2-2-2-2-2-2-2--4-4-4-4-4-4-4-4-|

|-------------------------------------------------------------------|x4
|-------------------------------------------------------------------|
|-------------------------------------------------------------------|
|-------------------------------------------------------------------|
|-------------------------------------------------------------------|
|-9--------------------------------2----------------4---------------|
Related for Gone tab
Advertisement will be closed in 10 seconds