Song name
# A B C D E F G H I J K L M N O P Q R S T U V W X Y Z

Bouncing Souls - That Song tab

Intro x3
-----------------------------------------------------------------------|
-----------------------------------------------------------------------|
-----------------------------------------------------------------------|
-9-9-9-9-9-----------7-7-7-7-7-----------9-9-9-9-9---------------------|
-7-7-7-7-7-9-9-9-9-9-5-5-5-5-5-7-7-7-7-7-7-7-7-7-7-9-9-9-9-9-7-7-7-7-7-|
-----------7-7-7-7-7-----------5-5-5-5-5-----------7-7-7-7-7-5-5-5-5-5-|

Pre-verse

Guitar 1

-0-2-0--0-2-0--0-2-0--0-2-0--0-2-0--0-2-0--0-2-0----------|
----------------------------------------------------------|
----------------------------------------------------------|
----------------------------------------------------------|
----------------------------------------------------------|
----------------------------------------------------------|

Guitar 2

----------------------------------------------------------|
----------------------------------------------------------|
----------------------------------------------------------|
-2--5--7--9-----------------------------------------------|
-2--3--5--7-----------------------------------------------|
-0--------------------------------------------------------|

Verse

--------------------------------------------------------------------------|
--------------------------------------------------------------------------|
--------------------------------------------------------------------------|
-9-9-9-9-9-----------7-7-7-7-7-----------9-9-9-9-9------------------------| x2
-7-7-7-7-7-9-9-9-9-9-5-5-5-5-5-7-7-7-7-7-7-7-7-7-7-9-9-9-9-9-xx7xx7xx7xx7-|
-----------7-7-7-7-7-----------5-5-5-5-5-----------7-7-7-7-7-xx5xx5xx5xx5-|

"ooh, ooh's"
----------------------------------------------------------|
----------------------------------------------------------|
----------------------------------------------------------|
-9-9-9-------9-9-9-------9-9-9----------------------------|
-7-7-7-9-9-9-7-7-7-7-7-7-7-7-7-9-9-9-7-7-7----------------|
-------7-7-7-------5-5-5-------7-7-7-5-5-5----------------|

----------------------------------------------------------|
----------------------------------------------------------|
----------------------------------------------------------|
-9-9-9----------------------------------------------------|
-7-7-7-9-9-9-7-7-7----------------------------------------|
-------7-7-7-5-5-5----------------------------------------|

Pre Chorus

Guitar 1

-0-2-0--0-2-0--0-2-0--0-2-0--0-2-0--0-2-0--0-2-0----------|
----------------------------------------------------------|
----------------------------------------------------------|
----------------------------------------------------------|
----------------------------------------------------------|
----------------------------------------------------------|

Guitar 2

----------------------------------------------------------|
----------------------------------------------------------|
----------------------------------------------------------|
-2--5--7--9-----------------------------------------------|
-2--3--5--7-----------------------------------------------|
-0--------------------------------------------------------|

Chorus

----------------------------------------------------------|
----------------------------------------------------------|
----------------------------------------------------------|
-9-9-9-9-9-----------7-7-7-7-7----------------------------| x4
-7-7-7-7-7-9-9-9-9-9-5-5-5-5-5-7-7-7-7-7------------------|
-----------7-7-7-7-7-----------5-5-5-5-5------------------|

Solo

Guitar 1

-0-0-0-2-0-0-/-5-5-4-2-0-0--------------------------------|
----------------------------------------------------------|
----------------------------------------------------------|
----------------------------------------------------------| x2
----------------------------------------------------------|
----------------------------------------------------------|

Guitar 2

----------------------------------------------------------|
----------------------------------------------------------|
----------------------------------------------------------|
-9-9-9-9-9-----------7-7-7-7-7----------------------------| x2
-7-7-7-7-7-9-9-9-9-9-5-5-5-5-5-7-7-7-7-7------------------|
-----------7-7-7-7-7-----------5-5-5-5-5------------------|

Outro

Guitar 1

-0-2-0--0-2-0--0-2-0--0-2-0--0-2-0--0-2-0--0-2-0----------|
----------------------------------------------------------|
----------------------------------------------------------|
----------------------------------------------------------|
----------------------------------------------------------|
----------------------------------------------------------|

Guitar 2

----------------------------------------------------------|
----------------------------------------------------------|
----------------------------------------------------------|
-2--5--7--9-----------------------------------------------|
-2--3--5--7-----------------------------------------------|
-0--------------------------------------------------------|
Tap to rate this tab
 
# A B C D E F G H I J K L M N O P Q R S T U V W X Y Z