Song name
# A B C D E F G H I J K L M N O P Q R S T U V W X Y Z

Bouncing Souls - Messenger tab

Help us improve GuitareTab! Take a short survey!
Intro
E|--4--4--3--3--------3--3|  |-4~|
B|-4--4--1--1---6--6-1--1-|  |-4~|
G|1--1--0--0---5--5-0--0--|  |-1~|
D|------------3--3--------|x3|---|Last Time
A|------------------------|  |---|
E|------------------------|  |---|

Verse x4
E|1-1-11-1-11|  |---------|
B|1-1-11-3-33|  |---------|
G|2-2-22-3-33|  |8888-----|
D|3-3-33-3-33|x3|8888-8888|
A|3-3-33-1-11|  |6666-8888|
E|1-1-11-----|  |-----6666|
The full bar chord is optional you can play just the (133---)
and (-133--) by themselves

Chorus
E|1--------1111--------1111--------1~-------1~-------|
B|1--------1111--------1111--------3~-------3~-------|
G|2--------2222--------2222--------3~-------3~-------|
D|3--------3333--------3333333333333~-------3~-------|
A|3--------3333--------3333333333331~-------1~-------|
E|1--------1111--------111111111111------------------|
                           ........


Verse x4
E|1-1-11-1-11|  |---------|
B|1-1-11-3-33|  |---------|
G|2-2-22-3-33|  |8888-----|
D|3-3-33-3-33|x3|8888-8888|
A|3-3-33-1-11|  |6666-8888|
E|1-1-11-----|  |-----6666|
The full bar chord is optional you can play just the (133---)
and (-133--) by themselves

Chorus
E|1--------1111--------1111--------4~-------1~-------4~-------1~|
B|1--------1111--------1111--------4~-------3~-------4~-------3~|
G|2--------2222--------2222--------5~-------3~-------5~-------3~|
D|3--------3333--------3333--------6~-------3~-------6~-------3~|
A|3--------3333--------3333--------6~-------1~-------6~-------1~|
E|1--------1111--------1111--------4~----------------4~---------|

Solo
This was hard to tab out I doubt its right
I think it is originally done on harmonica
E|8--6------8--6-----6--8--6-8/10-/11-11-10-8|
B|------9-6-------9--------------------------|
G|-------------------------------------------|
D|-------------------------------------------|x2
A|-------------------------------------------|
E|-------------------------------------------|

E|/15b~-15b~15b15b15b15b-13b~-13b~15-13-11-10|
B|-------------------------------------------|
G|-------------------------------------------|
D|-------------------------------------------|
A|-------------------------------------------|
E|-------------------------------------------|

E|/15b~-15b~15b15b15b15b-13b~-13b~15-13-11-10|8-6----------|
B|-------------------------------------------|----6vvvvvvvv|
G|-------------------------------------------|-------------|
D|-------------------------------------------|-------------|
A|-------------------------------------------|-------------|
E|-------------------------------------------|-------------|

Rhythm During Solo x2
E|-----------|  |---------|
B|-----------|  |---------|
G|-------3-33|  |8888-----|
D|3-3-33-3-33|x3|8888-8888|
A|3-3-33-1-11|  |6666-8888|
E|1-1-11-----|  |-----6666|

E|-----------------------------------|
B|-----------------------------------|
G|---------33333333-88888888---------|
D|33333333-33333333-88888888-88888888|
A|33333333-11111111-66666666-88888888|
E|11111111-------------------66666666|

Post-Solo
E|----------|
B|----------|
G|----------|
D|---------3|played alot with an occasional
A|3333333333|full power chord
E|1111111111|
  ..........

Verse x4
E|-----------|  |---------|
B|-----------|  |---------|
G|-------3-33|  |8888-----|
D|3-3-33-3-33|x3|8888-8888|
A|3-3-33-1-11|  |6666-8888|
E|1-1-11-----|  |-----6666|

Bridge
E|--4--4--3--3--------3--3|  
B|-4--4--1--1---6--6-1--1-|  
G|1--1--0--0---5--5-0--0--|  
D|------------3--3--------|x3
A|------------------------|  
E|------------------------|  

E|4444444444444444444444444444444444444444444444444444444|
B|4444444444444444444444444444444444444444444444444444444|
G|1111111111111111111111111111111111111111111111111111111|
D|-------------------------------------------------------|
A|-------------------------------------------------------|
E|-------------------------------------------------------|
  .......................................................
                            Gradually release the palmute

Ending
E|--4--4--3--3--------3--3|  
B|-4--4--1--1---6--6-1--1-|  
G|1--1--0--0---5--5-0--0--|  
D|------------3--3--------|x4
A|------------------------|  
E|------------------------|

End On
E|4~~~~~|
B|4~~~~~|
G|1~~~~~|
D|------|
A|------|
E|------|
Related for Messenger tab