Song name
# A B C D E F G H I J K L M N O P Q R S T U V W X Y Z

Bouncing Souls - Airport Security tab

-------------------------------------------------------------------------------
			     AIRPORT SECURITY - Bouncing Souls
-------------------------------------------------------------------------------
Tabbed by: cheekypoints


Tuning: standard

Intro/Chorus (x4):
e|---------------------------------------------------------------------------|
B|-----3---------------------------------------------------------------------|
G|---------------7-----------------------------------------------------------|
D|-------5-----7-------------------------------------------------------------|
A|---5-------5-----5---3-3-3-2-0---------------------------------------------|
E|-3-------------------------------------------------------------------------|

Played over Intro:
e|---------------------------------------------------------------------------|
B|-3/8-----------------------------------------------------------------------|
G|---------------------------------------------------------------------------|
D|---------------------------------------------------------------------------|
A|---------------------------------------------------------------------------|
E|---------------------------------------------------------------------------|


Verse (muted) x8:
e|---------------------------------------------------------------------------|
B|---------------------------------------------------------------------------|
G|-----------7-7-7-7-------------5-5-5-5-------------------------------------|
D|-5-5-5-5---7-7-7-7---7-7-7-7---5-5-5-5-------------------------------------|
A|-5-5-5-5---5-5-5-5---7-7-7-7---3-3-3-3-------------------------------------|
E|-3-3-3-3-------------5-5-5-5-----------------------------------------------|


Pre-chorus:
e|---------------------------------------------------------------------------|
B|---------------------------------------------------------------------------|
G|--------------------5-5-5-5--5-5-5-5---------------------------------------|
D|-7-7-7-7--7-7-7-7---5-5-5-5--5-5-5-5---------------------------------------|
A|-7-7-7-7--7-7-7-7---3-3-3-3--3-3-3-3---------------------------------------|
E|-5-5-5-5--5-5-5-5----------------------------------------------------------|

e|---------------------------------------------------------------------------|
B|---------------------------------------------------------------------------|
G|--------------------9-9-9-9--7-7-7-7---------------------------------------|
D|-7-7-7-7--7-7-7-7---9-9-9-9--7-7-7-7---------------------------------------|
A|-7-7-7-7--7-7-7-7---7-7-7-7--5-5-5-5---------------------------------------|
E|-5-5-5-5--5-5-5-5----------------------------------------------------------|


Chorus (x4):
e|---------------------------------------------------------------------------|
B|-----3---------------------------------------------------------------------|
G|---------------7-----------------------------------------------------------|
D|-------5-----7-------------------------------------------------------------|
A|---5-------5-----5---3-3-3-2-0---------------------------------------------|
E|-3-------------------------------------------------------------------------|


Post Chorus (x2):
e|---------------------------------------------------------------------------|
B|-----3---------------------------------------------------------------------|
G|---------------7-----------------------------------------------------------|
D|-------5-----7-------------------------------------------------------------|
A|---5-------5-----5---3-3-3-2-0---------------------------------------------|
E|-3-------------------------------------------------------------------------|

Played over Post Chorus:
e|---------------------------------------------------------------------------|
B|-3/8-----------------------------------------------------------------------|
G|---------------------------------------------------------------------------|
D|---------------------------------------------------------------------------|
A|---------------------------------------------------------------------------|
E|---------------------------------------------------------------------------|


Verse (muted) x8:
e|---------------------------------------------------------------------------|
B|---------------------------------------------------------------------------|
G|-----------7-7-7-7-------------5-5-5-5-------------------------------------|
D|-5-5-5-5---7-7-7-7---7-7-7-7---5-5-5-5-------------------------------------|
A|-5-5-5-5---5-5-5-5---7-7-7-7---3-3-3-3-------------------------------------|
E|-3-3-3-3-------------5-5-5-5-----------------------------------------------|


Pre-chorus:
e|---------------------------------------------------------------------------|
B|---------------------------------------------------------------------------|
G|--------------------5-5-5-5--5-5-5-5---------------------------------------|
D|-7-7-7-7--7-7-7-7---5-5-5-5--5-5-5-5---------------------------------------|
A|-7-7-7-7--7-7-7-7---3-3-3-3--3-3-3-3---------------------------------------|
E|-5-5-5-5--5-5-5-5----------------------------------------------------------|

e|---------------------------------------------------------------------------|
B|---------------------------------------------------------------------------|
G|--------------------9-9-9-9--7-7-7-7---------------------------------------|
D|-7-7-7-7--7-7-7-7---9-9-9-9--7-7-7-7---------------------------------------|
A|-7-7-7-7--7-7-7-7---7-7-7-7--5-5-5-5---------------------------------------|
E|-5-5-5-5--5-5-5-5----------------------------------------------------------|


Chorus (x4):
e|---------------------------------------------------------------------------|
B|-----3---------------------------------------------------------------------|
G|---------------7-----------------------------------------------------------|
D|-------5-----7-------------------------------------------------------------|
A|---5-------5-----5---3-3-3-2-0---------------------------------------------|
E|-3-------------------------------------------------------------------------|


Bridge:
e|---------------------------------------------------------------------------|
B|---------------------------------------------------------------------------|
G|-5-5-5-5--5-5-5-5----------------------7-7-7-7--7-7-7-7--------------------|
D|-5-5-5-5--5-5-5-5---5-5-5-5--5-5-5-5---7-7-7-7--7-7-7-7---5-5-5-5--4-4-4-4-|
A|-3-3-3-3--3-3-3-3---5-5-5-5--5-5-5-5---5-5-5-5--5-5-5-5---5-5-5-5--4-4-4-4-|
E|--------------------3-3-3-3--3-3-3-3----------------------3-3-3-3--2-2-2-2-|

e|---------------------------------------------------------------------------|
B|---------------------------------------------------------------------------|
G|--------------------5-5-5-5--5-5-5-5---7-7-7-7--7-7-7-7---7-7-7-7--7-7-7-7-|
D|-5-5-5-5--5-5-5-5---5-5-5-5--5-5-5-5---7-7-7-7--7-7-7-7---7-7-7-7--7-7-7-7-|
A|-5-5-5-5--5-5-5-5---3-3-3-3--3-3-3-3---5-5-5-5--5-5-5-5---5-5-5-5--5-5-5-5-|
E|-3-3-3-3--3-3-3-3----------------------------------------------------------|


Chorus (x8):
e|---------------------------------------------------------------------------|
B|-----3---------------------------------------------------------------------|
G|---------------7-----------------------------------------------------------|
D|-------5-----7-------------------------------------------------------------|
A|---5-------5-----5---3-3-3-2-0---------------------------------------------|
E|-3-------------------------------------------------------------------------|

Played over Chorus:
e|---------------------------------------------------------------------------|
B|-3/8-----------------------------------------------------------------------|
G|---------------------------------------------------------------------------|
D|---------------------------------------------------------------------------|
A|---------------------------------------------------------------------------|
E|---------------------------------------------------------------------------|


Outro (x4):
e|-3-------------------------------------------------------------------------|
B|--3------------------------------------------------------------------------|
G|-------5-4-0---------------------------------------------------------------|
D|---------------------------------------------------------------------------|
A|---------------------------------------------------------------------------|
E|---------------------------------------------------------------------------|

| /  slide up
| \  slide down
| h  hammer-on
| p  pull-off
| ~  vibrato
| +  harmonic
| x  Mute note
===============================================================================
Tap to rate this tab
 
# A B C D E F G H I J K L M N O P Q R S T U V W X Y Z