Song name
# A B C D E F G H I J K L M N O P Q R S T U V W X Y Z

Bouncing Souls - Youre So Rad tab

-------------------------------------------------------------------------------
			     YOU'RE SO RAD - The Bouncing Souls
-------------------------------------------------------------------------------
Tabbed by: adam lee
Email: me@adamleesteinberg.com



Tuning: Standard E

Intro/Chorus
*=palm mute
e|-----------------------------|
B|-----------------------------|
G|-----------------------------| Repeat a bunch
D|--------9999999999-----------|
A|--------9999999999-----------|
E|----5-6-7777777777-----------|
      * * **********

Verse
e|-----------------------------------------------|
B|-----------------------------------------------|
G|--99999999--7777777777-------------------------|
D|--99999999--7777777777---99999999999-----------|
A|--77777777--5555555555---99999999999-----------|
E|-------------------------77777777777-----------|

Pre-chorus
e|-------------------|
B|-------------------|
G|-------------------|
D|-77777777777-------|
A|-77777777777-------|
E|-55555555555-------|

Solo
e|---------------------------------------------------------------------------|
B|----13----13------13----13----13--------17----17------17----17----17-------|
G|----15B17-15B17---15B17-15B17-15B17-----19B21-19B21---19B21-19B21-19B21----|
D|------------------{PLAYED FAST}-----------------------{PLAYED FAST}--------|
A|---------------------------------------------------------------------------|
E|---------------------------------------------------------------------------|

e|---------------------------------------------------------------------------|
B|----13----13------13----13----13--------17---------------------------------|
G|----15B17-15B17---15B17-15B17-15B17-----19B21------------------------------|
D|------------------{PLAYED FAST}---------{HOLD WITH BEND}-------------------|
A|---------------------------------------------------------------------------|
E|---------------------------------------------------------------------------|

GO PETE GO!
e|---------------------------------------------------------------19B 19B 19B-|
B|--------------------------------------------------19B 19B 19B--------------|
G|-21-19-21-19-21-19-21-19--19-17-19-17-19-17-19-17--------------------------|
D|---------------------------------------------------------------------------|
A|---------------------------------------------------------------------------|
E|---------------------------------------------------------------------------|
===============================================================================
Tap to rate this tab
# A B C D E F G H I J K L M N O P Q R S T U V W X Y Z