Song name
# A B C D E F G H I J K L M N O P Q R S T U V W X Y Z

Bouncing Souls - Bullying The Jukebox tab

-------------------------------------------------------------------------------
			     Bullying the Jukebox - The Bouncing Souls
-------------------------------------------------------------------------------
Tabbed by: adam lee
Email: me@adamleesteinberg.com

^^ is a lazy tabber and will just give you the parts of the song, you can piece it
together from there :D

Tuning: Standard E

Intro Riff (used later in song)
e|-------------------------------|
B|--99999109-------77777771097---|
G|--999999-9-------88888888-88---|  Repeat a few times
D|-------------------------------|
A|-------------------------------|
E|-------------------------------|

Verse 1 & 2 part 1
e|--------------------------------|
B|--999999109109----777777107107--|
G|--9999999-99-9----8888888-88-8--|  Repeat a few times
D|--------------------------------|
A|--------------------------------|
E|--------------------------------|

Verse part 2 (There was no fuss, we knew her name...)
e|-------------------------------------------------------------|
B|--5-------5------------555-555----------555-555--------------|
G|--4---4---4---2--------444-444-444-444--444-444-222-222------|
D|--2---4---2---2--------222x222-444-444--222x222-222-222------|
A|------2-------0----------------222x222----------000x000------|
E|-------------------------------------------------------------|

Chorus
e|---------------------------------------------------------------------|
B|-555-555---------555-555-----555-555---------------------------------|
G|-444-444-444-444-444-444-222-444-444-444-444-222-222-444-444---------|
D|-222-222-444-444-222-222-222-222-222-444-444-222-222-444-444---------|
A|---------222-222---------000---------222-222-000-000-222-222---------|
E|---------------------------------------------------------------------|

So basically it goes:
E - Bullying the Jukebox
B - Because its fun
E - You cant get near it
A - Until we're done
E - Bullying the Jukebox
B - Because we rule
A - All the songs we like
B - Are really cool

^^^ And it continues into the Whoa whoaaaa whoas, we're really cool

(Drank until, our last song)
e|----------------------------------------------------|
B|--------5----------------5--------------------------|
G|-----4----4------4-----4--------2-------------------|
D|---2-----------4-----2--------2---------------------|
A|-------------2--------------0-----------------------|
E|----------------------------------------------------|

Outro, a little tough to hear, but basically the intro x2 then on last two times
e|-------------------------------------------------------------|
B|---999910/12-12-12-12-10\7-----99999-7-9-10-9-7-5-4-2-4-5----|
G|---99999-----------------------99999-------------------------|
D|-------------------------------------------------------------|
A|-------------------------------------------------------------|
E|-------------------------------------------------------------|


| /  slide up
| \  slide down
| h  hammer-on
| p  pull-off
| ~  vibrato
| +  harmonic
| x  Mute note
===============================================================================
Tap to rate this tab
# A B C D E F G H I J K L M N O P Q R S T U V W X Y Z