Song name
# A B C D E F G H I J K L M N O P Q R S T U V W X Y Z

Bouncing Souls - No Comply tab

-------------------------------------------------------------------------------
			     No Comply- Bouncing Souls
-------------------------------------------------------------------------------

Tuning: Standard


INTRO:

e|---------------------------------------------------------------------------|
B|---------------------------------------------------------------------------|
G|---------------------------------------------------------------------- ----|
D|-9--9-9--------------------------------------------------------------------|
A|-7--7-7--xxxxx7----9--9-9-9------------------------------------------------|
E|---------xxxxx5----7--7-7-7------------------------------------------------|

VERSE:
e|---------------------------------------------------------------------------|
B|---------------------------------------------------------------------------|
G|---------------------------------------------------------------------------|
D|-9-------------------------------------------------------------------------|
A|-7-------7--------9--------9-----------------------------------------------|
E|---------5--------7--------7------------------------------------------------|
     I'm on the outside looking in...
e|---------------------------------------------------------------------------|
B|---------------------------------------------------------------------------|
G|---------------------------------------------------------------------------|
D|---------------------------------------------------------------------------|
A|9999999999-----------------------------------------------------------------|
E|7777777777-----------------------------------------------------------------|
   PM
   I feel good, how bout you?

CHORUS
e|---------------------------------------------------------------------------|
B|---------------------------------------------------------------------------|
G|-9-------------------------------------------------------------------------|
D|-9------7-------9----------------------------------------------------------|
A|-7------7-------9----------------------------------------------------------|
E|--------5-------7----------------------------------------------------------|

Continue playing through out the rest of the song.

END ON:
e|---------------------------------------------------------------------------|
B|---------------------------------------------------------------------------|
G|---------------------------------------------------------------------------|
D|--9------------------------------------------------------------------------|
A|--7------------------------------------------------------------------------|
E|---------------------------------------------------------------------------|



************************************

| /   slide up
| \   slide down
| h   hammer-on
| p   pull-off
| ~   vibrato
| +   harmonic
| x   Mute note
| b   Bend
| pb  Pre-bend
| br  Bend release
| pbr Pre-bend release
| brb Bend release bend

************************************
Tap to rate this tab
 
# A B C D E F G H I J K L M N O P Q R S T U V W X Y Z