Song name
# A B C D E F G H I J K L M N O P Q R S T U V W X Y Z

Bouncing Souls - Manthem tab

The beginning of the song (0:00-0:14) is just drums and bass, then the guitar starts. 
is only actually one guitar, the sound is dubbed.

Intro/Prechorus
e|--------------------------------|
B|3-3-3-3-3-3-3-3-3-3-3-3-3-3-3-3-|
G|--------------------------------|   x2
D|--------------------------------|
A|--------------------------------|
E|--------------------------------|

...on the 4th time, guitar is dubbed over:

e|--------------------------------|
B|--------------------------------|
G|7-------------------------------|
D|7-------5-------7---------------|
A|5-------5-------7---------------|
E|--------3-------5---------------|

Verse
e|--------------------------------|
B|--------------------------------|
G|7-777777--------------------7---|
D|7-777777-5-555555-7-777777777-7-| x2
A|5-555555-5-555555-7-777777775-7-|
E|---------3-333333-5-55555555--5-|

e|--------------------------------|
B|--------------------------------|
G|7-777777--------77777777--------|
D|7-777777555555557777777777777777|
A|5-555555555555555555555577777777|
E|--------33333333--------55555555|

e|--------------------------------|
B|--------------------------------|
G|77777777------------------------|
D|77777777555555557777777777777777|
A|55555555555555557777777777777777|
E|--------333333335555555555555555|

Chorus
e|--------------------------------|
B|--------------------------------|
G|77777777------------------------|   x3
D|77777777555555557777777777777777|
A|55555555555555557777777777777777|
E|--------333333335555555555555555|

e|--------------------------------|
B|--------------------------------|
G|7--7--77------------------------|   x2
D|7--7--775--5--557--7-77-77777777|
A|5--5--555--5--557--7-77-77777777|
E|--------3--3--335--5-55-55555555|

Outtro
e|--------------------------------|
B|--------------------------------|
G|77777777------------------------|   x2
D|77777777555555557777777777777777|
A|55555555555555557777777777777777|
E|--------333333335555555555555555|

The second time, this is dubbed over:

e|--------------------------------|
B|3-3-3-3-3-3-3-3-3-3-3-3-3-3-3-3-|
G|--------------------------------|
D|--------------------------------|
A|--------------------------------|
E|--------------------------------|

e|---------|
B|---------|
G|7--------|
D|7--------|
A|5--------|
E|---------|

Song Form/Pattern:

Intro
Verse
Intro/Prechorus
Verse
Prechorus
Chorus
Verse
Prechorus
Chorus
Outro
Tap to rate this tab
 
# A B C D E F G H I J K L M N O P Q R S T U V W X Y Z