Song name
# A B C D E F G H I J K L M N O P Q R S T U V W X Y Z

Bouncing Souls - Night On Earth tab

Night on Earth
The Bouncing Souls
Hopeless Romantic

x = muted string.
* = palm mute.
~ = hold note

Intro:
e|--------------------------------------------------------------------|
B|--------------------------------------------------------------------|
G|---------999-999---------777-777---------999-999-666-666-777-777-99-|
D|-777-777-999-999-777-777-777-777-777-777-999-999-666-666-777-777-99-|
A|-777-777-777-777-777-777-555-555-777-777-777-777-444-444-555-555-77-|
E|-555-555---------555-555---------555-555----------------------------|
   **  **  **  **  **  **  **  **  **  **  **  **  **  **  **  **
|-----------------------------------------------------------------|
|-----------------------------------------------------------------|
|---------999-999---------777-777---------999-999-----------------|
|-777-777-999-999-777-777-777-777-777-777-999-999-777-777-777-777-|
|-777-777-777-777-777-777-555-555-777-777-777-777-777-777-777-777-|
|-555-555---------555-555---------555-555---------555-555-555-555-|
  **  **  **  **  **  **  **  **  **  **  **  **  **  **  **  **

Verse 1:
e|--------------------------------------------------------------------|
B|--------------------------------------------------------------------|
G|---------9999999---------7777777---------9999999-6666666-7777777-99-|
D|-7777777-9999999-7777777-7777777-7777777-9999999-6666666-7777777-99-|
A|-7777777-7777777-7777777-5555555-7777777-7777777-4444444-5555555-77-|
E|-5555555---------5555555---------5555555----------------------------|

|-------------------------------------------------------------|
|-------------------------------------------------------------|
|---------9999999---------7777777---------9999999-------------|
|-7777777-9999999-7777777-7777777-7777777-9999999-7777777777--|
|-7777777-7777777-7777777-5555555-7777777-7777777-7777777777--|
|-5555555---------5555555---------5555555---------5555555555--|

Pre-Interlude
e|--------------------------|
B|--------------------------|
G|-77777777777--------------|
D|-77777777777-7x7x7x777----| x2
A|-55555555555-7x7x7x777----|
E|-------------5x5x5x555----|

|------------------------|
|------------------------|
|------------------------|
|-------------------4~---| x2
|----4-5-----4-7~-4------|
|-5~------5~-------------|

Interlude 1:
e|-000000000000000000000000000000000000000000000000000000000000000000-|
B|-555555555555555555555555555555555555555555555555555555555555555555-|
G|--------------------------------------------------------------------|
D|--------------------------------------------------------------------|
A|--------------------------------------------------------------------|
E|--------------------------------------------------------------------|

Verse 2:
e|--------------------------------------------------------------------|
B|--------------------------------------------------------------------|
G|---------999-999---------777-777---------999-999-666-666-777-777-99-|
D|-777-777-999-999-777-777-777-777-777-777-999-999-666-666-777-777-99-|
A|-777-777-777-777-777-777-555-555-777-777-777-777-444-444-555-555-77-|
E|-555-555---------555-555---------555-555----------------------------|
   **  **  **  **  **  **  **  **  **  **  **  **  **  **  **  **
|-----------------------------------------------------------------|
|-----------------------------------------------------------------|
|---------999-999---------777-777---------999-999-----------------|
|-777-777-999-999-777-777-777-777-777-777-999-999-777-777-777-777-|
|-777-777-777-777-777-777-555-555-777-777-777-777-777-777-777-777-|
|-555-555---------555-555---------555-555---------555-555-555-555-|
  **  **  **  **  **  **  **  **  **  **  **  **  **  **  **  **

Pre-Interlude
e|--------------------------|
B|--------------------------|
G|-77777777777--------------|
D|-77777777777-7x7x7x777----| x2
A|-55555555555-7x7x7x777----|
E|-------------5x5x5x555----|

|------------------------|
|------------------------|
|------------------------|
|-------------------4~---| x2
|----4-5-----4-7~-4------|
|-5~------5~-------------|

Interlude 2:
e|-000000000000000000000000000000000000000000000000000000000000000000-|
B|-555555555555555555555555555555555555555555555555555555555555555555-|
G|--------------------------------------------------------------------|
D|--------------------------------------------------------------------|
A|--------------------------------------------------------------------|
E|--------------------------------------------------------------------|

e|-0~---0~---0~---2~---|
B|-2~---0~---2~---3~---|
G|-2~---1~---2~---2~---| x2
D|-2~---2~---2~---0~---|
A|-0~---2~---0~--------|
E|---------------------|

e|-17---17-17-17-17-17-17-17-17------12---12-12-12-12-12-12-12-12--|
B|-----------------------------------------------------------------|
G|-----------------------------------------------------------------|
D|-----------------------------------------------------------------|
A|-----------------------------------------------------------------|
E|-----------------------------------------------------------------|

e|-0~---0~---0~---2~---|
B|-2~---0~---2~---3~---|
G|-2~---1~---2~---2~---| 
D|-2~---2~---2~---0~---|
A|-0~---2~---0~--------|
E|---------------------|
Tap to rate this tab
 
# A B C D E F G H I J K L M N O P Q R S T U V W X Y Z