Song name
# A B C D E F G H I J K L M N O P Q R S T U V W X Y Z

Bouncing Souls - Ghosts On The Boardwalk tab

Ghosts on the Boardwalk
The Bouncing Souls
Ghosts on the Boardwalk

* = palm mute 
\ or / = slide
x = muted string
~ = hold note

Intro:
e|--------------------------------------------------------------------------|
B|--------------------------------------------------------------------------|
G|-444444444444444444/9999/88888888888888/11111111111111111111119999/888888-|
D|-xxxxxxxxxxxxxxxxxx/xxxx/xxxxxxxxxxxxxx/x-x-x-x-x-x-x-x-x-x-x-xxxx/xxxxxx-|
A|-222222222222222222/7777/66666666666666/9-9-9-9-9-9-9-9-9-9-9-7777/666666-|
E|--------------------------------------------------------------------------|

Verse 1:
e|--------------------------------------|
B|--------------------------------------|
G|-44444444-----------------------------|
D|-44444444-44444444-66666666-22222222--| x4
A|-22222222-44444444-66666666-22222222--|
E|----------22222222-44444444-00000000--|

Pre Chorus:
e|-------------------------------------------------------------|
B|-------------------------------------------------------------|
G|-------------------------------------------------------------|
D|6666666-2222222-6666666-2222222-6666666-2222222-444444444444-|
A|6666666-2222222-6666666-2222222-6666666-2222222-444444444444-|
E|4444444-0000000-4444444-0000000-4444444-0000000-222222222222-|

Chorus:
e|------------------------------------------------------------------|
B|------------------------------------------------------------------|
G|-44444444----------------------------44444444---------------------|
D|-44444444-44444444-66666666-22222222-44444444-44444444-2222222222-| 
A|-22222222-44444444-66666666-22222222-22222222-44444444-2222222222-|
E|----------22222222-44444444-00000000----------22222222-0000000000-|

|------------------------------------------------------------------|
|------------------------------------------------------------------|
|-44444444----------------------------44444444---------------------|
|-44444444-44444444-66666666-22222222-44444444-44444444-2222222222-| 
|-22222222-44444444-66666666-22222222-22222222-44444444-2222222222-|
|----------22222222-44444444-00000000----------22222222-0000000000-|

e|----------------------------|
B|----------------------------|
G|-44444444-------------------|
D|-44444444-44444444-22222222-| 
A|-22222222-44444444-22222222-|
E|----------22222222-00000000-|

Interlude:
e|-----------|
B|-----------|
G|-4x---4x---|
D|-4x-4-4x-2-| x2 
A|-2x-4-2x-2-|
E|----2----0-|

Verse 2:
e|--------------------------------------|
B|--------------------------------------|
G|-44444444-----------------------------|
D|-44444444-44444444-66666666-22222222--| x4
A|-22222222-44444444-66666666-22222222--|
E|----------22222222-44444444-00000000--|
   ******** ******** ******** ********

Pre Chorus:
e|-------------------------------------------------------------|
B|-------------------------------------------------------------|
G|-------------------------------------------------------------|
D|6666666-2222222-6666666-2222222-6666666-2222222-444444444444-|
A|6666666-2222222-6666666-2222222-6666666-2222222-444444444444-|
E|4444444-0000000-4444444-0000000-4444444-0000000-222222222222-|

Chorus:
e|------------------------------------------------------------------|
B|------------------------------------------------------------------|
G|-44444444----------------------------44444444---------------------|
D|-44444444-44444444-66666666-22222222-44444444-44444444-2222222222-| 
A|-22222222-44444444-66666666-22222222-22222222-44444444-2222222222-|
E|----------22222222-44444444-00000000----------22222222-0000000000-|

|------------------------------------------------------------------|
|------------------------------------------------------------------|
|-44444444----------------------------44444444---------------------|
|-44444444-44444444-66666666-22222222-44444444-44444444-2222222222-| 
|-22222222-44444444-66666666-22222222-22222222-44444444-2222222222-|
|----------22222222-44444444-00000000----------22222222-0000000000-|

e|----------------------------|
B|----------------------------|
G|-44444444-------------------|
D|-44444444-44444444-22222222-| 
A|-22222222-44444444-22222222-|
E|----------22222222-00000000-|

Bridge:
e|-------------------------------------------------------------|
B|-------------------------------------------------------------|
G|-------------------------------------------------------------|
D|6666666-2222222-6666666-2222222-6666666-2222222-444444444444-|
A|6666666-2222222-6666666-2222222-6666666-2222222-444444444444-|
E|4444444-0000000-4444444-0000000-4444444-0000000-222222222222-|

e|-----------|
B|-----------|
G|-4x---4x---|
D|-4x-4-4x-2-| x4 
A|-2x-4-2x-2-|
E|----2----0-|

|------|
|------|
|4~----|
|4~-2~-| 
|2~-2~-|
|---0~-| 

Chorus:
e|------------------------------------------------------------------|
B|------------------------------------------------------------------|
G|-44444444----------------------------44444444---------------------|
D|-44444444-44444444-66666666-22222222-44444444-44444444-2222222222-| 
A|-22222222-44444444-66666666-22222222-22222222-44444444-2222222222-|
E|----------22222222-44444444-00000000----------22222222-0000000000-|

|------------------------------------------------------------------|
|------------------------------------------------------------------|
|-44444444----------------------------44444444---------------------|
|-44444444-44444444-66666666-22222222-44444444-44444444-2222222222-| 
|-22222222-44444444-66666666-22222222-22222222-44444444-2222222222-|
|----------22222222-44444444-00000000----------22222222-0000000000-|

e|----------------------------|
B|----------------------------|
G|-44444444-------------------|
D|-44444444-44444444-22222222-| x2
A|-22222222-44444444-22222222-|
E|----------22222222-00000000-|

Outro:
e|-------------|
B|-------------|
G|-4x---4x-----|
D|-4x-4-4x-2---|
A|-2x-4-2x-2---|
E|----2----0---|

End on:
|----|
|----|
|-4~-|
|-4~-|
|-2~-|
|----|
Tap to rate this tab
# A B C D E F G H I J K L M N O P Q R S T U V W X Y Z