Song name
# A B C D E F G H I J K L M N O P Q R S T U V W X Y Z

Bouncing Souls - True Believers tab

------------------------------------------------------------
Bouncing Souls - True Believers
------------------------------------------------------------

By: Brian

      F         C         G         G
e |-------------------------------------------------------|
B |-------------------------------------------------------|
G |-------------5-----------------------------------------|
D |---3---------5(hold)---5---------5---------------------|
A |---3(hold)---3---------5(hold)---5(hold)---------------| X2
E |---1-------------------3---------3---------------------|

Solos:
e |-------------------------------------------------------|
B |-------------------------------------------------------|
G |-------------------------------------------------------|
D |-----------------------2-0-0---0---0-2-0-0-0---3-3-3---|
A |---------2-3-3-2-3-2-3-------3---3-----------3-------3-|
E |-1-1-1-1-----------------------------------------------|

e |-1-1-1-1-0-0-0-0---------------0---------1-1-1---------|
B |-----------------1-3-3-1-3-1-3---3-3-3-1-------1-------|
G |-------------------------------------------------------|
D |-------------------------------------------------------|
A |-------------------------------------------------------|
E |-------------------------------------------------------|

F----------------------------C--
We live our lives on our own way. 

-----------------------------------G--
Never really listened to what they say.

----------------------------------------
The kind of faith that doesn't fade away.

-------------------------
We are the true believers.

F------------C------------G------------
AhhhhhhhhhhhhAhhhhhhhhhhhhAhhhhhhhhhhhh

-------------------------
We are the true believers.







Guitar Break:

e|-------------------------|
B|-------------------------|
G|------5-x----------------|
D|--3-x-5-x-5-5-5-5-5-5-5--|   X4
A|--3-x-3-x-5-5-5-5-5-5-5--|
E|--1-x-----3-3-3-3-3-3-3--|

Verse 2:

------------Bass only------------
Well you can fight or you can run.

---------------Bass only--------------
Hide under a rock 'till the war is won.

-------------Bass only-------------
Play it safe and don't make a sound.

----------------------------F
But not us we won't back down.

----------------C----------
True believers, all the way.

G--------
You and I.

    F             C                 G
e|-------------------------------------------------------------------|
B|-------------------------------------------------------------------|
G|-------------------------------------------------------------------|
D|--------------------------------2-0-0---0---0-2-0-0---3-3-3--------|
A|--3-3-3-3-2-3-2-3---3-3-2-3-2-3-------3---3---------3-------3------|
E|-------------------------------------------------------------------|

    F             C           G          
e|--1---1---1-3-----------------------3-3--|
B|----1---1-------------------------3-3-3--|
G|-----------------------------------------|
D|----------------2-0---2-0----------------|
A|--------------------3-----3--------------|
E|----------------------------3-3-3--------|

F----------------------------C--
We live our lives on our own way. 

-----------------------------------G--
Never really listened to what they say.

----------------------------------------
The kind of faith that doesn't fade away.

-------------------------
We are the true believers.

F------------C------------G------------
AhhhhhhhhhhhhAhhhhhhhhhhhhAhhhhhhhhhhhh

-------------------------
We are the true believers.

e|-------------------------|             |----------------------|
B|-------------------------|             |----------------------|
G|------5-x----------------|             |----------5-----------|
D|--3-x-5-x-5-5-5-5-5-5-5--|   X4        |--5---3---5(hold)-----|
A|--3-x-3-x-5-5-5-5-5-5-5--|             |--5---3---3-----------|
E|--1-x-----3-3-3-3-3-3-3--|             |--3---1---------------|
Tap to rate this tab
# A B C D E F G H I J K L M N O P Q R S T U V W X Y Z