Song name
# A B C D E F G H I J K L M N O P Q R S T U V W X Y Z

Bouncing Souls - Lean On Sheena tab

Verse
E|----------------------------------------------------------|
B|----------------------------------------------------------|
G|----------------------------------------------------------|
D|44444444444444--------------------------------------------|
A|22222222222222-44444444444444-66666666666666-2222222222222|2x
E|---------------22222222222222-44444444444444-0000000000000|
  .............. .............. .............. ..............

Verse 2
E|----------------------------------------------------------|
B|----------------------------------------------------------| guitar 1
G|----------------------------------------------------------|
D|44444444444444--------------------------------------------|
A|22222222222222-44444444444444-66666666666666-2222222222222|2x
E|---------------22222222222222-44444444444444-0000000000000|
  .............. .............. .............. ..............
E|--------------------------------|
B|--------------------------------| guitar 2
G|4-------------------------------|
D|4-------4-------6--------2------|x2
A|2-------4-------6--------2------|
E|--------2-------4--------0------|

Chorus
E|----------------------------------------------------------|
B|----------------------------------------------------------|
G|----------------------------------------------------------|
D|44444444444444--------------------------------------------|
A|22222222222222-44444444444444-66666666666666-2222222222222|2x
E|---------------22222222222222-44444444444444-0000000000000|
  .............. .............. .............. ..............
E|--------------------------------|
B|12~~~---------------------------|
G|--------------------------------|
D|--------------------------------|x2
A|--------------------------------|
E|--------------------------------|

Verse again
Verse 2 again
Chorus again

Bridge  rythm
E|----------------------------------------------------------|
B|----------------------------------------------------------|
G|----------------------------------------------------------|
D|44444444444444--------------------------------------------|
A|22222222222222-44444444444444-66666666666666-2222222222222|
E|---------------22222222222222-44444444444444-0000000000000| x1
  .............. .............. .............. ..............
lead
E|-------1414------------------------------------------------|
B|-121212----1212-1414-1212-1616-1212-14---------------------|
G|-----------------------------------------------------------|
D|-----------------------------------------------------------|
A|-----------------------------------------------------------| x2
E|-----------------------------------------------------------|

Distorted Verse  rythm
E|----------------------------------------------------------|
B|----------------------------------------------------------|
G|----------------------------------------------------------|
D|44444444444444--------------------------------------------|
A|22222222222222-44444444444444-66666666666666-2222222222222|2x
E|---------------22222222222222-44444444444444-0000000000000|
lead
E|----------------------------------------------------------|
B|----------------------------------------------------------|
G|-161616161616161616161616161616161616161616161616161616---|
D|-xxxxxxxxxxxxxxxxxxxxxxxxxxxxxxxxxxxxxxxxxxxxxxxxxxxxxx---|
A|-141414141414141414141414141414141414141414141414141414---|2x
E|----------------------------------------------------------|

-pickslide-

Verse 2 rhythm
E|----------------------------------------------------------|
B|----------------------------------------------------------|
G|----------------------------------------------------------|
D|44444444444444--------------------------------------------|
A|22222222222222-44444444444444-66666666666666-2222222222222|2x
E|---------------22222222222222-44444444444444-0000000000000|

Lead
E|----------------------------------------------------------|
B|-1616161616-14141414-12121212-17171717--------------------|
G|----------------------------------------------------------|
D|----------------------------------------------------------|
A-----------------------------------------------------------|2x
E|----------------------------------------------------------|

Chorus rythm                lead
E|-------------|           E|-------|   E|-----------|then
B|-------------|           B|---12--|   B|-----------|
G|-------------|           G|-------|   G|--99-99999-|
D|---4---------|4x         D|-------|4x D|--99-99999-|
A|---2---------|           A|-------|   A|--77-77777-|
E|-------------|           E|-------|   E|-----------|

Bridge rythm
E|----------------------------------------------------------|
B|----------------------------------------------------------|
G|----------------------------------------------------------|
D|44444444444444--------------------------------------------|
A|22222222222222-44444444444444-66666666666666-2222222222222|2x
E|---------------22222222222222-44444444444444-0000000000000|
lead
E|-------1414----|------------------------------------------------|
B|-121212----1212|-1414-1212-1616-1212-14-------------------------|
G|---------------|------------------------------------------------|
D|---------------|------------------------------------------------|
A|---------------|-(17171717 2nd time)----------------------------| x2
E|---------------|------------------------------------------------|
                                 First time
pickslide

Verse 2 rythm
E|----------------------------------------------------------|
B|----------------------------------------------------------|
G|----------------------------------------------------------|
D|44444444444444--------------------------------------------|
A|22222222222222-44444444444444-66666666666666-2222222222222|2x
E|---------------22222222222222-44444444444444-0000000000000|
Tap to rate this tab
 
# A B C D E F G H I J K L M N O P Q R S T U V W X Y Z