Song name
# A B C D E F G H I J K L M N O P Q R S T U V W X Y Z

Bouncing Souls - Hopeless Romantic tab

Artist: The Bouncing Souls
Song: Hopeless Romantic
Album: Hopeless Romantic
Tabbed By: JustnHav

Intro 
E5 
e ----------------------------| 
b ----------------------------| 
g --9-9-9-9-9-9-9-9-9-9-9-9---| 
d --9-9-9-9-9-9-9-9-9-9-9-9---| 
a --7-7-7-7-7-7-7-7-7-7-7-7---| 
e ----------------------------| 

Verse 
E5 A 
e ------------------------------------------------| 
b ------------------------------------------------| 
g --9-9-9-9-9-9-9-9-9-9---------------------------| 
d --9-9-9-9-9-9-9-9-9-9-7-7-7-7-7-7-5-7-7-7-------| 
a --7-7-7-7-7-7-7-7-7-7-7-7-7-7-7-7-5-7-7-7-------| 
e ----------------------5-5-5-5-5-5-5-5-5-5-------| 

Pre - Chorus 
B5 A E5 A 
e -------------------------------------------------------------------| 
b -------------------------------------------------------------------| 
g ----------------------------------9-9-9-9-9-9-9-9------------------| 
d --9-9-9-9-9-9-9-9-7-7-7-7-7-7-7-7-9-9-9-9-9-9-9-9-7-7-7-7-7-7-7-7--| 
a --9-9-9-9-9-9-9-9-7-7-7-7-7-7-7-7-7-7-7-7-7-7-7-7-7-7-7-7-7-7-7-7--| 
e --7-7-7-7-7-7-7-7-5-5-5-5-5-5-5-5-----------------5-5-5-5-5-5-5-5--| 

Chorus 
E5 B5 A B5 E5 
e ----------------------------------------------------------------------| 
b ----------------------------------------------------------------------| 
g -9-9-9-9-9-9-9-9--9--9-------------------------------9-9-9-9-9-9-9-9--| 
d -9-9-9-9-9-9-9-9--9--9--9--9--7-7-7-7-7-7-7-7--9--9--9-9-9-9-9-9-9-9--| 
a -7-7-7-7-7-7-7-7--7--7--9--9--7-7-7-7-7-7-7-7--9--9--7-7-7-7-7-7-7-7--| 
e ------------------------7--7--5-5-5-5-5-5-5-5--7--7-------------------| 

Bridge (i swear i got this part wrong)at least its close
E5 A E5 A B5 A 
e -----------------------------------------------------------------------------|
b -----------------------------------------------------------------------------|
g -9-9-9-9-9-9-9-9-----------------9-9-9-9-9-9-9-9-----------------------------|
d -9-9-9-9-9-9-9-9-7-7-7-7-7-7-7-7-9-9-9-9-9-9-9-9-7-7-7-7-7-7-7-7-9-9-9-9-9-9-|
a -7-7-7-7-7-7-7-7-7-7-7-7-7-7-7-7-7-7-7-7-7-7-7-7-7-7-7-7-7-7-7-7-9-9-9-9-9-9-|
e -----------------5-5-5-5-5-5-5-5-----------------5-5-5-5-5-5-5-5-7-7-7-7-7-7-|
Tap to rate this tab
# A B C D E F G H I J K L M N O P Q R S T U V W X Y Z