Guitaretab - guitar tabs
Song name
# A B C D E F G H I J K L M N O P Q R S T U V W X Y Z

Bouncing Souls - The Freaks Nerds And Romantics tab

Album: Maniacal Laughter
Artist: Bouncing Souls
Song: The Freaks, Nerds, & Romantics

INTRO
1:----------------2222---
2:----3---3--2222-3333---
3:---2-2-2-2-2222-2222---
4:--4---5----2222--------
5:-----------0000--------
6:-----------------------    REPEAT TWICE
[ Tab from: http://www.guitaretab.com/b/bouncing-souls/32696.html ]
1:--3333-2222------2222--3333-2222------2(Let Ring)--
2:--3333-3333-2222-3333--3333-3333-2222-3(Let Ring)--
3:--0000-2222-2222-2222--0000-2222-2222-2(Let Ring)--
4:--0000------2222-------0000------2222--------------
5:--2222------0000-------2222------0000--------------
6:--3333-----------------3333------------------------

now just do this for all the rest of this song
1:-----------------------
2:-----------------------
3:-----9-----------------
4:-----9-----7-----9-----
5:-----7-----7-----9-----
6:-----------5-----7-----
Related for The Freaks Nerds And Romantics tab
Advertisement will be closed in 10 seconds