Song name
# A B C D E F G H I J K L M N O P Q R S T U V W X Y Z

Bouncing Souls - Eastside Mags tab

Here we go with another easy tab that no-one has done yet:

 intro 5x
e|---------------------------------------------------------------------------| 
B|---------------------------------------------------------------------------| 
G|--xx7----------------------------------------------------------------------| 
D|--xx7--xx9---xx5---xx7-----------------------------------------------------| 
A|--xx5--xx9---xx5---xx7-----------------------------------------------------| 
E|-------xx7---xx3---xx5-----------------------------------------------------| 

Verse  x2                                                                                               
e|----------------------|------------|  
B|----------------------|------------| 
G|-----7----------------|------------| 
D|-----7-----5-5----7---|---5----7---| 
A|-----5-----5-5----7---|---5----7---| 
E|-----------3-3----5---|---3----5---| 

These next Lead bits, i "borrowed" from another tab:

You play this under the Verse rythym:
e|-------------------------------------------| 
B|-------------------------------------------| 
G|----7-7-7-7-7-7-7-7-7--0-0-2-2-2-2-2-2-2-0-| 
D|-------------------------------------------| 
A|-------------------------------------------| 
E|-------------------------------------------|

e|---------------------------------------| 
B|---------------------------------------| 
G|-7--9-6-7--9-6-7--9-6-7--9-6-7---------| 
D|---------------------------------------| 
A|---------------------------------------| 
E|---------------------------------------|

Order:
Intro x 5
Verse x 1
Intro x 4
Verse x 1
Intro x 4
Verse x 1
Intro x 4
BREAK
Intro x 2
End On D
Tap to rate this tab
# A B C D E F G H I J K L M N O P Q R S T U V W X Y Z