Song name
# A B C D E F G H I J K L M N O P Q R S T U V W X Y Z

Bouncing Souls - Kids And Heroes tab

Bouncing Souls - Kids And Heroes

I have thoroughly studied this song and I am under the impression that this is correct.  
you disagree or want to make any corrections, make a tab yourself.

Standard Tuning

Intro

               Hey, where have you gone...
e----------------------------------------------------------------|
B-------1-------------3----------------1--------------0----------|
G---------0--------------0----------------0--------------0-------|
D----2------(2)----------------------2--------------2------------|
A--3---------------2------------3--------------3-----------------|
E---------------3------------------------------------------------|


e----------------------------------------------------------------|
B-------1----------------3-------------1--------3--0-1-0---------|
G---------0-----------------0-------------0----------------------|
D----2-------(2)--------------------2----------------------------|
A--3----------------2------------3-----------3-------------------|
E----------------3-----------------------------------------------|


e---------------------------------------------------------------|
B--------1-------------3-----------1-----------0----------------|
G----------0-------------0-----------0------------0-------------|
D----2-------(2)----------------2-----------2-------------------|
A--3----------------2---------3-----------3---------------------|
E-----------------3---------------------------------------------|


e---------------------------------------------------------------|
B-------1-------------3----------------1--------------0---------|
G---------0--------------0----------------0--------------0------|
D----2------(2)----------------------2--------------2-----------|
A--3---------------2------------3--------------3----------------|
E---------------3-----------------------------------------------|


e--------------------------------------------------------------------------|
B-------1-------------3---------------1---------------1---------------1----|
G---------0--------------0---------------0----------------0---------------0|
D----2------(2)---------------------2---------------2---------------2------|
A--3---------------2-----------3---------------3----------------3----------|
E---------------3----------------------------------------------------------|

  Start, in the end, it's all a question of heart
e--3-----------------------3---------------------|
B--3-----------------------3---------------------|
G--0-----------------------0---------------------|
D--0-----------------------0---------------------|
A--2-----------------------2---------------------|
E--3-----------------------3---------------------|


Verse (0:34)

        Hey, where have you gone...

e-----------------------------------|
B-----------------------------------|
G-55555-----------------------------|
D-55555-55555--33333-33333----------|
A-33333-55555--33333-33333----------|
E-------33333--11111-11111----------|

(Just keep repeating that until you get to the bridge)

Bridge (1:04)

e-----------------------------------|
B----------6-5-6-5------------------|
G-5-5-55-5-5-5-5-5------------------|
D-5-5-55-5-5-5-5-5---5-555-3-3-3-3--|
A-3-3-33-3-3-3-3-3---5-555-3-3-3-3--|
E--------------------3-333-1-1-1-1--|


e-----------------------------------|
B----------6-5-6-5------------------|
G-5-5-55-5-5-5-5-5------------------|
D-5-5-55-5-5-5-5-5---5-555-3-3-3-3--|
A-3-3-33-3-3-3-3-3---5-555-3-3-3-3--|
E--------------------3-333-1-1-1-1--|


Verse 2 (1:14)


          Hey, where did it go...
e-----------------------------------------|
B-----------------------------------------|
G--77777----------------------------------|
D--77777--77777--55555-55555--------------|
A--55555--77777--55555-55555--------------|
E---------55555--33333-33333--------------|

Keep repeating that until you get to the bridge

Bridge (1:40)


e-----------------------------------|
B----------6-5-6-5------------------|
G-5-5-55-5-5-5-5-5------------------|
D-5-5-55-5-5-5-5-5---5-555-3-3-3-3--|
A-3-3-33-3-3-3-3-3---5-555-3-3-3-3--|
E--------------------3-333-1-1-1-1--|


e-----------------------------------|
B----------6-5-6-5------------------|
G-5-5-55-5-5-5-5-5------------------|
D-5-5-55-5-5-5-5-5---5-555-3-3-3-3--|
A-3-3-33-3-3-3-3-3---5-555-3-3-3-3--|
E--------------------3-333-1-1-1-1--|

Solo  (Sorry, I do not know the solo.  I didn't want to tab it if I wasn't 100% sure 
it, and I am not sure

about it.  Sorry, fellas.)


Chords during solo - same as verse 2

e-----------------------------------|
B-----------------------------------|
G--77777----------------------------|
D--77777--77777--55555-55555--------|
A--55555--77777--55555-55555--------|
E---------55555--33333-33333--------|

Outro (Acoustic)

               Hey, where have you gone...
e----------------------------------------------------------------|
B-------1-------------3----------------1--------------0----------|
G---------0--------------0----------------0--------------0-------|
D----2------(2)----------------------2--------------2------------|
A--3---------------2------------3--------------3-----------------|
E---------------3------------------------------------------------|


e----------------------------------------------------------------|
B-------1----------------3-------------1--------3--0-1-0---------|
G---------0-----------------0-------------0----------------------|
D----2-------(2)--------------------2----------------------------|
A--3----------------2------------3-----------3-------------------|
E----------------3-----------------------------------------------|


e----------------------------------------------------------------|
B--------1-------------3-----------1-----------0-----------------|
G----------0-------------0-----------0------------0--------------|
D----2-------(2)----------------2-----------2--------------------|
A--3----------------2---------3-----------3----------------------|
E-----------------3----------------------------------------------|


e---------------------------------------------|
B-------1-------------3----------------1------|
G---------0--------------0----------------0---|
D----2------(2)----------------------2--------|
A--3---------------2------------3-------------|
E---------------3-----------------------------|


all along the truth was right here in my own song
--------3-------------------3------------------------|
--------2-------------------2----------------1-------|
--------0-------------------0----------------0-------|
--------0-------------------0----------------2-------|
--------0-------------------0----------------3-------|
--------3-------------------3------------------------|


And there you go.  I am pretty sure it is 100% accurate.  Please rate this cause this is 
first tab.  Thanks.
Tap to rate this tab
# A B C D E F G H I J K L M N O P Q R S T U V W X Y Z