Song name
# A B C D E F G H I J K L M N O P Q R S T U V W X Y Z

Bouncing Souls - Sing Along Forever tab

SING ALONG FOREVER - Bouncing Souls
"ANCHORS AWEIGH"
Tuning:Standard (EADGBe)

PART I:
    C  F  C  F  G  F  C  G
e|--------------------------|
B|--------------------------|
G|--5-----5-----------5-----|
D|--5--3--5--3--5--3--5--5--|PLAY THIS
A|--3--3--3--3--5--3--3--5--|4 TIMES,THEN PLAY:
E|-----1-----1--3--1-----3--|

PART II
    G  F  C
e|-----------|
B|-----------|
G|--------5--|
D|--5--3--5--|
A|--5--3--3--|
E|--3--1-----|
Tap to rate this tab
# A B C D E F G H I J K L M N O P Q R S T U V W X Y Z