Song name
# A B C D E F G H I J K L M N O P Q R S T U V W X Y Z

Bouncing Souls - Anchors Aweigh tab

1. APARTMENT 5F

Guitar Intro
e--00000--0000000--0--0--0--0---0-0-000000--|
B--55555--4/55555--10-10-10-10--9-7-555555--|
G-------------------------------------------|
D-------------------------------------------|
A-------------------------------------------|
E-------------------------------------------|

Verse
e--777777--777777--555-777--777777-|
B--999999--777777--555-777--999999-|
G--999999--888888--666-888—-999999-|
D--999999--999999--777-999--999999-|
A--777777--999999--777-999--777777-|
E----------777777--555-777---------|

Chorus
e--5555--7777--77777777-|
B--5555--7777--99999999-|
G--6666--8888--99999999-|
D--7777--9999--99999999-|
A--7777--9999—-77777777-|
E--5555--7777-----------|

Bridge
e--0000000-00000000-|
B--5555555-4/555555-|
G-------------------|
D-------------------|
A-------------------|
E-------------------|

****************************************************************************
2. KIDS AND HEROS

intro
e---------------------------------|--3--------------------------|
b-----1-------3------1-------1----|--1---1----------------------|
g-------0-------0--0---0---0---0--|----0---0--------------------|
d---2-----------------------------|-----------------------------|x5
a-3---------2---------------------|-----------------------------|
e---------3-------1------1--------|-----------------------------|
                                   2nd time you play this insted of last one
then
e---------0---0--|
b-----1---3---1--|
g-------0-0---0--|
d---2-----0---2--|
a-3-------2---3--|
e---------3---0--|

verse - distorted
e----------------------------|
b----------------------------|
g-555555---------------------|
d-555555-555555-333333333333-|
a-333333-555555-333333333333-|
e--------333333-111111111111-|
then
e----------------------------------------------|
b----------------------------------------------|
g-555555---------------------------------------|
d-555555-555555555555555555-333333333333333333-|
a-333333-555555555555555555-333333333333333333-|
e--------333333333333333333-111111111111111111-|

e-------------------------|
b------6-6----------------|
g-555555555---------------|
d-555555555-555555-333333-|x2
a-333333333-555555-333333-|
e-----------333333-111111-|

verse 2
e----------------------------|
b----------------------------|
g-777777---------------------|
d-777777-777777-555555555555-|x4
a-555555-777777-555555555555-|
e--------555555-333333333333-|

e---------------------------------|
b---------------------------------|
g-777777--------------------------|
d-777777-777777-7-x-7-x-5-5-x-5-5-|
a-555555-777777-7-x-7-x-5-5-x-5-5-|
e--------555555-5-x-5-x-3-3-x-3-3-|

then
e-------------------------|
b------8-8----------------|
g-777777777---------------|
d-777777777-777777-555555-|x2
a-555555555-777777-555555-|
e-----------555555-333333-|

solo
e--------------------------------|
b--------------6-6-6-8-5-5-------|
g--------------------------7-4-5-|
d--------------------------------|
a-7-7-5-7-8-8--------------------|
e--------------------------------|

e----------------------------------------------|
b----------------------------5553-5553-555555--|
g-5555-7-5554-5554-5554-5554-------------------|
d----------------------------------------------|
a----------------------------------------------|
e----------------------------------------------|

e------------------12121210-12121210-121212121212-|
b-8886-8886-888888--------------------------------|
g-------------------------------------------------|
d-------------------------------------------------|
a-------------------------------------------------|
e-------------------------------------------------|

then just play the intro again and the last 3 chord the pete plays are
e-0-0-3-|
b-3-1-1-|
g-0-0-0-|
d-0-2-2-|
a-2-3-3-|
e-3-0-0-|

****************************************************************************
3. NEW DAY

Intro
|---------------------|x4
|----------------5----|
|------4-3--4-3---4-3-|
|-2-44----4----4------|
|-2-44----------------|
|-0-22----------------|

Verse
|---------------------|x4
|---------------------|
|-----------4444------|
|-4444-2222-4444-2222-|
|-4444-2222-2222-2222-|
|-2222-0000------0000-|

Fill
|---------------------|x2
|----------------5----|
|------4-3--4-3---4-3-|
|-2-44----4----4------|
|-2-44----------------|
|-0-22----------------|

Verse2
|---------------------|x4
|---------------------|
|-----------4444------|
|-4444-2222-4444-2222-|
|-4444-2222-2222-2222-|
|-2222-0000------0000-|

Fill2
|---------------------|x2
|----------------5----|
|------4-3--4-3---4-3-|
|-2-44----4----4------|
|-2-44----------------|
|-0-22----------------|

|----------------------------|x4
|----------------------------|
|-1111-11989-9-9864-44444444-|
|--x-x--xxxx-x-xxxx-xxxxxxxx-|
|--9-9--9767-7-7642-22222222-|
|----------------------------|

Chorus
|------------------------------------|x8 |-0-|
|------------------------------------|   |-0-|
|----------44444444------------------|   |-0-|
|-22222222-44444444-4444444444444444-|   |-0-|
|-22222222-22222222-4444444444444444-|   |-0-|
|-00000000----------2222222222222222-|   |-0-|

Breakdown
|-------------------------------------------00000000000-|
|-------------------------------------------00000000000-|
|-------------------------------------------00000000000-|
|-2-44--------2-44--------2-44--------2-44--00000000000-|
|-2-44--------2-44--------2-44--------2-44--------------|
|-0-22--------0-22--------0-22--------0-22--------------|

Fill
|----------------------------|x4
|----------------------------|
|-1111-11989-9-9864-44444444-|
|--x-x--xxxx-x-xxxx-xxxxxxxx-|
|--9-9--9767-7-7642-22222222-|

Chorus
|------------------------------------|x7|--------------------------|
|------------------------------------|  |------------------------5-|
|----------44444444------------------|  |-------44------4-3-4-3----|
|-22222222-44444444-4444444444444444-|  |-22----44----4----4---4---|
|-22222222-22222222-4444444444444444-|  |-22----22----4------------|
|-00000000----------2222222222222222-|  |-00----------2------------|

****************************************************************************
4. SING ALONG FOREVER

Verse (palm-mute)
e--------------------|
B--------------------|
G--5-5-5-5-----------|
D--5-5-5-5---3-3-3-3-|
A--3-3-3-3---3-3-3-3-|
E------------1-1-1-1-|

Chorus
e---------------------------------|
B---------------------------------|
G------------------555555---------|
D--555555--333333--555555--555555-|
A--555555--333333--333333--555555-|
E--333333--111111----------333333-|

Added to second chorus
e-----------------|
B-----------------|
G-555555----------|
D-555555--5555555-|
A-333333--5555555-|
E---------3333333-|

Solo
e-------------------------------------------------------------------|
B-------------------------------------------------------------------|
G-------------------------------------------------------------------|
D--5-5--5-7-5-2-3---3-3-5-3-2---2h3p0-------------------------------|
A-------------------------------------3333-333p2p0------------------|
E----------------------------------------------------3--3-5-3-0-1-3-|

e---------------------------|
B--6-6-8-6-5---5-6-88888888-|
G--5-5-5-5-5---5-5-77777777-|
D---------------------------|
A---------------------------|
E---------------------------|

****************************************************************************
5. BORN FREE

Verse
e|--555555555--555555555-----------------------------------|
B|--777777777--555555555-----------------------------------|
G|--777777777--666666666-----------------------------------|
D|--777777777--777777777-----------------------------------|
A|--555555555--777777777-----------------------------------|
E|-------------555555555-----------------------------------|

Pre-Chorus ("They’ll put a chip in your arm…")
e|--333--222--5555555---------------------------|
B|--333--222--5555555---------------------------|
G|--444--333--6666666---------------------------|
D|--555--444--7777777---------------------------|
A|--555--444--7777777---------------------------|
E|--333--222—-5555555----------------------------|

Chorus ("Don’t forget that you are born free…")
e|--10-10-10-10--9--7-55555---10-10-10-10--9--9--555-9—7777-----------|
B|--12-12-12-12--11-9-77777---12-12-12-12--11-9--777-11-9999----------|
G|--12-12-12-12--11-9-77777---12-12-12-12--11-9--777-11-9999----------|
D|--12-12-12-12--11-9-77777---12-12-12-12--11-9--777-11-9999----------|
A|--10-10-10-10--9--7-55555---10-10-10-10--9--7--555-9--7777----------|
E|--------------------------------------------------------------------|

Bridge
e|-------------------------------------------|
B|----3-----------3-----------3---------3----|
G|------2-----------2-----------2---------2--|
D|--------------------------0----------------|
A|--2-----------0----------------------------|
E|------------------------------------3------|

Then
e|---7777777--555555--5555555--3333333--|
B|---7777777--555555--7777777--3333333--|
G|---7777777--666666--7777777--4444444--|
D|---9999999--777777--7777777--5555555--|
A|---9999999--777777--5555555--5555555--|
E|---7777777--555555-----------3333333--|

Ending
e|--5-5-5-5-5------------------|
B|--7-7-7-7-7------------------|
G|--7-7-7-7-7------------------|
D|--7-7-7-7-7------------------|
A|--5-5-5-5-5------------------|
E|-----------------------------|

****************************************************************************
6. INSIDE OUT

*= mute chord

Intro:
Riff 1
e----------------------------------------------------------------|
B----------------------------------------------------------------|
G----------------------------7-7-7-------------------------------|
D--9-9-9-9-9-4-4-4-5-5-5-5-5-7-7-7-7-7-7-7-7-4-4-4-5-5-5-5-7-7-7-|
A--9-9-9-9-9-4-4-4-5-5-5-5-5-5-5-5-7-7-7-7-7-4-4-4-5-5-5-5-7-7-7-|
E--7-7-7-7-7-2-2-2-3-3-3-3-3-------5-5-5-5-5-2-2-2-3-3-3-3-5-5-5-|
   * * * * * * * * * * * * * * * * * * * * * * * * * * * * 
Repeat this with the first chord (B) played open

Riff 2
e------------------------------------------------------------------|
B------------------------------------------------------------------|
G----------------------------7-7-7---------------------------------|
D--9-9-9-9-9-4-4-4-5-5-5-5-5-7-7-7-7-7-7-7-7-4-4-4-5-5-5-5-5-7-7-7-|
A--9-9-9-9-9-4-4-4-5-5-5-5-5-5-5-5-7-7-7-7-7-4-4-4-5-5-5-5-5-7-7-7-|
E--7-7-7-7-7-2-2-2-3-3-3-3-3-------5-5-5-5-5-2-2-2-3-3-3-3-3-5-5-5-|

For the verse you play Riff 2, the timing is tough so I'll try my best to place
the chords with the lyrics to help out.

Verse 1
B      F#       G         D  A     F#      G        A
It's incredible how we try to be a part of something
B     F#     G           D A                 F#    G       A
It's amazing how we feel alone, though we're never seperate
B       F#    G            D A          F#     G         A      B     
It's so funny how we weave a web of our own destruction, and we find 
F#     G             D  A            F#      G        A
in the end we fought so hard to be a part of something

Chorus:
B A G
A                         B   A     G      A
To feel someone beside you is beautiful in life
B      A      G                A
But to feel a wholeness inside is the greatest feeling
         B     A  G                  A 
There is nothing that can take that away
            B
Your never alone

Solo Riff:
e------------0-0-0-0-0-----------|
B--0-0-0-0-0-3-3-3-3-3-0-0--0-0--|
G--4-4-4-4-4-----------5/4--2-4--|
D--------------------------------| x2
A--------------------------------|
E--------------------------------|
                                    B-0-|
Riff 2 x2(with second guitar playing: G-4-| a bunch of times

Riff 1

Then repeat verse 1, with first half muted

D, A, B, F#-G

Bridge Chorus:
D           A             B   F#    G      D
To feel someone beside you is beautiful in life
              A               B       F#  G 
But to feel a wholeness inside is the greatest feeling of 
D   A  B,F#-G D   A  B,F#-G
All-aa-all,   All-aa-all

****************************************************************************
7. SIMPLE MAN

Verse
"I've seen lives crash like waves..."
E------------------------------------------------------------|
B------------------------------------------------------------|
G------------------------------------------------------------|
D-222222-999999-222222-777777-222222-999999-777777777777-----|
A-222222-999999-222222-777777-222222-999999-777777777777-----|
E-000000-777777-000000-555555-000000-777777-555555555555-----|
Play that X3 then

"Woke up from that nightmare, and started over again..."
E-----------------------------|
B-----------------------------|
G-----------------------------|
D-222222-999999-777777777777--|
A-222222-999999-777777777777--|
E-000000-777777-555555555555--|

Prechorus
"Whoa-oh ooooh, oh..."
E--------------------------------|
B--------------------------------|
G-999999-------------------------|
D-999999-999999-777777777777-----|
A-777777-999999-777777777777-----|
E--------777777-555555555555-----|
Play X3 then

Chorus
"I want to be a simple man..."
E-----------------|
B-----------------|
G-9---------------|
D-9-9-11-7-9------|
A-7-9-11-7-9------|
E---7-9--5-7------|

Solo:
e--0~----0~------------------------------|
B--0~----0~------------------------------|
G--9~----11~---7--7-7-7-7-7-7~--14~-13~--| x2
D--9~----9~---------------------14~-14~--|
A--7~----7~---------------------12~-12~--|
E----------------------------------------|

Solo 2: (this is played over the solo after the first time)
e--------------------------------------|-------------------|
B--------------------------------------|-------------------|
G--------------------------------------|-------------------|
D--------------------------------------|-------------------|
A--7~----------------------------------|--7~-----7-7---9~--|
E------5-7~--2-4--4-4-4-4-2-4--5~--7~--|-----7-7-----7-----|

e--------------------------------------|
B--------------------------------------|
G--------------------------------------|
D--------------------------------------|
A------9-9---11~-11-9-11-7--7-7-7-7-9~-|
E--7-7-----7---------------------------|

****************************************************************************
8. BETTER DAYS

*= mute note/chord

Riff 1:
e--------------------------------------------------------------------------|
B-----6-------6--6------6-------6--6------5-------5--5------6-------6--6---|
G-7-7---7-7-7----7--3-3---3-3-3----3--5-5---5-5-5----5--7-7---7-7-7----7---|
D--------------------------------------------------------------------------|
A--------------------------------------------------------------------------|
E--------------------------------------------------------------------------|
  * *   * * *       * *   * * *       * *   * * *       * *   * * *
Riff 2:
e--------------------------------------------------|
B--6--6-6-6-6--6--6-6-6-6--5--5-5-5-5--6--6-6-6-6--|
G--7--7-7-7-7--3--3-3-3-3--5--5-5-5-5--7--7-7-7-7--|
D--------------------------------------------------|
A--------------------------------------------------|
E--------------------------------------------------|

D,Bb,C,D x4

Verse 1:
D*          Bb*               C*          D*
What do you do when she won't love you anymore?
D           Bb                C           D
What do you do when she won't hold you anymore?
D*        Bb*              C*         D*
Living in sin, now you're all alone again
D     Bb       C         D
She's having a change of heart
D         Bb        C           D
Without a word everything just falls apart

D,Bb,C,D x2

Verse 2:
D*          Bb*               C*          D*
What do you do when she won't love you anymore?
D           Bb                C           D
What do you do when she won't hold you anymore?
D*        Bb*              C*    D*
To lovers walking through life together
D      Bb                C                 D
Tender kisses of all the sweet things they used to say
D    Bb       C      D     D,Bb,C,D
Memories from better days...
D    Bb       C      D
Memories from better days...

D,Bb,C,D x2

Bridge: (play Riff 1 and then Riff 2, but I'll include the root notes too)
(D)           (Bb)  (C)             (D)
Everything we built, everything that I believed...
(D)     (Bb)          (C)     (D)
Just some old fashioned fantasy

Riff 3:
e--0--0-0-0-0--0--0-0-0-0--0--0-0-0-0--0--0-0-0--|
B--6--6-6-6-6--3--3-3-5-6--5--5-5-5-5--6--6-6-6--|
G--7--7-7-7-7--3--3-3-3-3--5--5-5-5-5--7--7-7-7--| x4
D------------------------------------------------|
A------------------------------------------------|
E------------------------------------------------|

Riff 4:
e--0--0-0-0-0--0--0-0-0-0--0-0-0-0-0--0--0-0-0---|
B--3--3-3-3-3--6--6-6-6-6--5-5-5h6p5--3--3-3-3---| x2
G------------------------------------------------|
D------------------------------------------------|
A------------------------------------------------|
E------------------------------------------------|

****************************************************************************
9. NIGHT TRAIN

Intro
Goodbye to me and you.
Goodbye to the life we knew.
One last long embrace.
Let go and walk on through.
e|-X-----X-----X-----X-----X-----X-|
B|-0-----0-----0-----0-----0-----0-|
G|-1-----2-----1-----4-----1-----4-|
D|-2-----2-----2-----4-----2-----4-|
A|-2-----0-----2-----2-----2-----2-|
E|-0-----X-----0-----X-----0-----X-|
  --------------------------------->

Verse
I'm leaving everything behind for a peace that I can't find.
The ghosts that roam this house
like winter air right through our souls.
And it feels like dying.
It just feels like time to go.
e|-X-----X-----X-----X-----X-----X-----X-----X-|
B|-0-----0-----0-----0-----0-----0-----0-----0-|
G|-1-----2-----1-----4-----1-----2-----1-----4-|
D|-2-----2-----2-----4-----2-----2-----2-----4-|
A|-2-----0-----2-----2-----2-----0-----2-----2-|
E|-0-----X-----0-----X-----0-----X-----0-----X-|
  --------------------------------------------->

e|-X-----X-----X-----X-----X-----X-----X-----X-|
B|-0-----0-----0-----0-----0-----0-----0-----0-|
G|-1-----4-----1-----4-----1-----4-----1-----4-|
D|-2-----4-----2-----4-----2-----4-----2-----4-|
A|-2-----2-----2-----2-----2-----2-----2-----2-|
E|-0-----X-----0-----X-----0-----X-----0-----X-|
  xxxxxxxxxxxxxxxxxxxxxxxxxxxxxxxxxxxxxxxxxxxxx>

Verse
I'm goin down south to dream another dream.
Maybe check out Memphis, Tennessee.
Take the night train and an extra pair of jeans.
Can't think of anything else I really need.
And all my experiences ride with me.
e|-X-----X-----X-----X-----X-----X-----X-----X-|
B|-0-----0-----0-----0-----0-----0-----0-----0-|
G|-1-----2-----1-----4-----1-----2-----1-----4-|
D|-2-----2-----2-----4-----2-----2-----2-----4-|
A|-2-----0-----2-----2-----2-----0-----2-----2-|
E|-0-----X-----0-----X-----0-----X-----0-----X-|
  --------------------------------------------->

e|-0-----0-----0-----0-|
B|-0-----0-----0-----0-|
G|-1-----2-----1-----4-|
D|-2-----2-----2-----4-|
A|-2-----0-----2-----2-|
E|-0-----X-----0-----X-|
  --------------------->

e|-X-----X-----X-----X-----X-----X-----X-----X-|
B|-0-----0-----0-----0-----0-----0-----0-----0-|
G|-1-----4-----1-----4-----1-----4-----1-----4-|
D|-2-----4-----2-----4-----2-----4-----2-----4-|
A|-2-----2-----2-----2-----2-----2-----2-----2-|
E|-0-----X-----0-----X-----0-----X-----0-----X-|
  xxxxxxxxxxxxxxxxxxxxxxxxxxxxxxxxxxxxxxxxxxxxx>

Verse
This town is dead to me.
And I can't stop chasing my dreams.
I love you more than anything,
but what you want I could never be.
e|-0-----0-----0-----0-----0-----0-----0-----0-|
B|-0-----0-----0-----0-----0-----0-----0-----0-|
G|-1-----2-----1-----4-----1-----2-----1-----4-|
D|-2-----2-----2-----4-----2-----2-----2-----4-|
A|-2-----0-----2-----2-----2-----0-----2-----2-|
E|-0-----X-----0-----X-----0-----X-----0-----X-|
  xxxxxxxxxxxxxxxxxxxxxxxxxxxxxxxxxxxxxxxxxxxxx>

e|-0-----0-----0-----0-|
B|-0-----0-----0-----0-|
G|-1-----4-----1-----4-|
D|-2-----4-----2-----4-|
A|-2-----2-----2-----2-|
E|-0-----X-----0-----X-|
  xxxxxxxxxxxxxxxxxxxxx>

I love you more than anything,
but only alone can we both be free.
e|-0-----0-----0-----0-----0-----0-|
B|-0-----0-----0-----0-----0-----0-|
G|-1-----4-----1-----4-----1-----4-|
D|-2-----4-----2-----4-----2-----4-|
A|-2-----2-----2-----2-----2-----2-|
E|-0-----X-----0-----X-----0-----X-|
  xxxxxxxxxxxxxxxxxxxxxxxxxxxxxxxxx>

Interlude
e|-X----------------|
B|-0----------------|
G|-1----------------|
D|-2----------------|
A|-2----------------|
E|-0----------------|
  xxxxxxxxxxxxxxxxxx>
 play chord 'til outro begins

Outro
Goodbye to me and you.
Goodbye to the life we knew.
Wipe the tears from your eyes.
Let go and walk on through.
e|-X-----X-----X-----X-----x----X-|
B|-0-----0-----0-----0-----0----0-|
G|-1-----2-----1-----4-----4----1-|
D|-2-----2-----2-----4-----4----2-|
A|-2-----0-----2-----2-----2----2-|
E|-0-----X-----0-----X-----X----0-|
  xxxxxxxxxxxxxxxxxxxxxxxxxx>  --->

| /  slide up
| \  slide down
| h  hammer-on
| p  pull-off
| ~  vibrato
| +  harmonic
| x  Mute note
| x> Keep strumming in both up and down directions
| -> Strum Chord Only Once
****************************************************************************
10. Todd's Song

Riff 1:
e------2h3-2-0-------0-----0--|
B------------------3---2h3----|
G--------------2-2------------| x4
D--(0)------------------------|
A-----------------------------|
E-----------------------------|

Verse 1:
D             G            A       D
I grab into a six-pack and raise a can 
D   G      A      D
To another fallen friend
D                    G       A
The news came on the phone today
D                G         A
Did you know you were not alone?

Chorus:
G            A                Riff 1 x2
I'll see you when we all come home...

Verse 2:
D               G        A         D
With a heart so big that you can't hide
D            G         A        D
You took the path of a slow suicide
D             G             A
And all those feelings that you had
D               G        A
They killed you from the inside

Chorus, Riff 1 x4

Verse 3:
D               G        A         D
With a heart so big that you can't hide
D             G            A            D
And all those feelings you can't keep inside
D                  G          A
I can't say that I don't understand
D G  A
   I know you tried...

Chorus, Riff x4

****************************************************************************
11. Blind Date

*= mute chord/note

Riff 1 (x3)
e-----------------------------------------------------------------------|
B-----------------------------------------------------------------------|
G--7--7--10-9-10-------------------9-10--------10-9-10------------------|
D--7--7--10-9-10--10--10-10-10-10--9-10--8--8--10-9-10--7--7-7-7--8--10-|
A--5--5---8-7-8---10--10-10-10-10--7--8--8--8---8-7--8--7--7-7-7--8--10-|
E------------------8---8--8--8--8--------6--6-----------5--5-5-5--6---8-|

Verse 1:
D*                       C*
I wish that you could see the you that I see
Bb*               A*           Bb* C*
Not some bull**** glamour fantasy
D*                         C*
Put down the magazines and see
Bb*            A  Bb  C
See a real beauty

Chorus: (play Riff 1 slower, I know this looks confusing, but you'll get it)
D,f-e-f,C,e-f
Bb   f-e-f A     Bb C
See a real beauty
 (repeat)

Verse 2:
D*                       C*
I wish that you could see the glory that I see
Bb*              A*     Bb* C*
Shining like the winter sun
D*                    C*
I wish that you could see
Bb*              A  Bb  C
See the true glory

Chorus 2:
D,f-e-f,C,e-f
Bb     f-e-f A    Bb C
See the true glory
 (Repeat)

Solo:                   x3
e---------------------13--|--15-15-15--15-15-15-15--|
B--15-15-15--15-15-17-----|-------------------------|
G-------------------------|-------------------------|
D-------------------------|-------------------------|
A-------------------------|-------------------------|
E-------------------------|-------------------------|
                        x3
e---------------------13--|-------------------------|
B--15-15-15--15-15-17-----|--13-13-13--13-13-13-13--|
G-------------------------|-------------------------|
D-------------------------|-------------------------|
A-------------------------|-------------------------|
E-------------------------|-------------------------|
           x2               x4
e------------|--13------------|--/17b-16-14-16-14-13-|
B--13-15-15--|-----h15-15-15--|----------------------|
G------------|----------------|----------------------|
D------------|----------------|----------------------|
A------------|----------------|----------------------|
E------------|----------------|----------------------|
           x6?
e------------|------------------------|
B--13-15-15--|--13-13-13-13-13-13-13--|
G------------|------------------------| Wheh!!
D------------|------------------------|
A------------|------------------------|
E------------|------------------------|

D,D,D,C x2

Bridge:
D                                      C
Wish there was something I could do to make you see
D                                         C
Wish there was something I could say, but you won't hear me
D       e                f    C            D  
I guess some things that I, I can't explain
e                f       C
Some things that I could never change

Verse 3:
D                   C           Bb                A Bb C
I read the thoughts in your eyes when you look at me
D                  C              Bb                  A  Bb C
I see the real you when you smile, I see the real beauty

Chorus 1 x2 (faster)

****************************************************************************
12. HIGHWAY KINGS

Verse 1:
D                       Bb
Sitting here, drinking again-
D                           Bb
Thinking back on how simple it used to be
D*                       Bb*                                 C*
Can it ever be that way again? I'm drinking this one to my friends, 
                                    A*
Looks like they'll be here till the end
                     D  Bb
  Till their bitter end
f-C
  What are dreams for anyway,
      D               Bb             f    C
  Without the guts to live your life that way?

Bridge:
e--------------------------------------------------|
B--6--6-6-6-6--5--5-5-5-5--------------------------|
G--7--7-7-7-7--7--7-7-7-7--------------------------|
D--7--7-7-7-7--7--7-7-7-7--8--8-8-8-8--8--8-8-8-8--|
A--5--5-5-5-5--------------8--8-8-8-8--8--8-8-8-8--|
E--------------------------6--6-6-6-6--6--6-6-6-6--|

D,Bb

Chorus:
D
We are the Highway Kings!
Bb
Chasing our destinies!
D
Crusing through a time zone,
Bb
As the world stands still!

Verse 2:
D*
Harvest moon in a desert sky,
Bb*
Making good times as we pass it by
C*                                A*
Wherever this road takes us it was meant to be
                 D    Bb
   We're already home
f-C
  What are dreams for anyway,
      D               Bb             f    C    D  Bb
  Without the guts to live your life that way?
f-C
  What are songs for anyway,
      D               Bb             f    C    
  Without the guts to live your life that way?

Outro: (this is the riff you play throughout the outro, 
but as usual, I'll indicate the root notes in the lyrics so you can fit
them together)
e--------------------------------------------------------------------------|
B--------------------------------------------------------------------------|
G--7-7-6-6-7--7-6h7--7-7-6-6-7--7-6h7--7-7-6-6-7--7-6h7--7-7-6-6-7--7-6h7--|
D--7-7-7-7-7--7-7-7--7-7-7-7-7--7-7-7--7-7-7-7-7--7-7-7--5-5-5-5-5--5-5-5--|
A--5-5-5-5-5--5-5-5--0-0-0-0-0--0-0-0--------------------------------------|
E--------------------------------------7-7-7-7-7--7-7-7--------------------|
(D)             (A)                         (B)
Learned to let go of the things we can't control
              (G)
Left 'em behind and followed rock and roll
(D)                   (A)                          (B)
We found a new way of life forever till the end of time
    (G)           Riff x2
But never getting old..
                  x3
e--------------------|-----|
B--------------------|-----|
G--7-7-6-6-7--7-6h7--|--7--|
D--7-7-7-7-7--7-7-7--|--7--|
A--5-5-5-5-5--5-5-5--|--5--|
E--------------------|-----|

****************************************************************************
13. ANCHORS AWEIGH

standard tuning. the rhythm of the song is pretty easy to pick up
Intro/ Verse
   C#    A      C#  E   A
---------------------------------
---------------------------------
---6------------6--/-9-----------
---6----7-------6-/--9--7--------
---4----7-------4-/--7--7--------
--------5---------------5--------   clean on 1st chorus, distorted on others

chorus/bridge
  E   B    C#   A
---------------------------
---------------------------
-------4----6--------------
--2----4----6----7---------
--2----2----4----7---------
--0--------------5--------- distortion for chorus, clean on bridge

last note on chorus and note the song ends on
   E
---------
---------
---9-----
---9-----
---7-----
---------

****************************************************************************
14. I GET LOST

()= bass only note
*= pm note/chord

Intro:
Riff 1                      x4
e-----------------------------|
B-----------------------------|
G--7-7-7----------------------|
D--7-7-7--7--7--5-5-5--7-7-7--|
A--5-5-5--7--7--5-5-5--7-7-7--|
E---------5--5--3-3-3--5-5-5--|

Verse 1:
(D)                          (A)
I don't wanna do anything to prove myself to you,
                               (D)
I don't wanna be something I'm not
      D*
Every time I try, everytime I chase
A*
Something that's wrong or right
G*            D*
I get lost in my mind,
G*            D*
I get lost in that lie
G*              D*         A
I get lost with the idea I have something to prove

Pre-chorus:
G             D    G           D
All I have to do is make my my way
G               D                  A*
Make the best of whatever comes my way...

Chorus:
                  D   G  A
Whatever comes my waaay-aaay x2
                  
Whatever comes my way!

Riff 2: (all muted I think)                                 x2   
e-------------------------------------------------------------|
B-------------------------------------------------------------|
G-------------------------------------------------------------|
D--7-7-7------------------------------------------------7-----|
A--5-5-5-5-5-4-4--5-5-5-4-4-5-5--7-7-7-7-7-7-7-7-7-7-7--5--7--|
E--------5-5-5-5--3-3-3-3-3-3-3--5-5-5-5-5-5-5-5-5-5-5-----5--|

Riff 3:              x8
e--14--14--12--12------|
B--15--15--15--15--15--|
G--14--14--14--14--14--| this isn't completely right, but it's mostly, you 
D----------------------| have to kind play with the rythm to get it, but
A----------------------| these should be the right chords (this was hard 
E----------------------| as heck to figure out so gimme a break ;)

Verse 2:
(D)                 (A)     
I don't want anything this world can give me
                               (D)
A lot of stuff makes me feel so empty
      D*
Every time I try, everytime I chase
A*
Something I want from you
G*            D*
I get lost in my mind,
G*            D*
I get lost in that lie
G*              D*         A
I get lost with the idea I have something to lose

Pre-chorus, Chorus x4

Riff 2 x2

Riff 3 x8

 D

****************************************************************************
15. THE DAY I TURNED MY BACK ON YOU

Inro: srtum and ring out

E--3--3--3---3--2--3--3--3--0---3--2--3-33-333--3-33-333--|
B--3--3--3---3--3--3--3--3--0---3--3--3-33-333--3-33-333--|
G--0--0--0---0--2--0--0--0--0---0--2--0-00-000--0-00-000--|
D--0--2--0---2--0--0--2--0--2---2--0--0-00-000--0-00-000--|
A--2--3--2---3-----2--3--2--2---3-----2-22-222--2-22-222--|
E--3-----3---------3-----3--0---------3-33-333--3-33-333--|

Verse
E----------------------------------------------------------|
B----------------------------------------------------------|
G------------5-55-555--------------------5-55-555-5-55-555-|
D--5-55-555--5-55-555-5-55-555-5-55-555--5-55-555-5-55-555-|
A--5-55-555--3-33-333-5-55-555-5-55-555--3-33-333-3-33-333-|
E--3-33-333-----------3-33-333-3-33-333--------------------|

E----------------------------------------------------|
B----------------------------------------------------|
G-7-77-777-7-77-777----------5-55-555----------------|
D-7-77-777-7-77-777-5-55-555-5-55-555-5--5--2-22-222-|
A-5-55-555-5-55-555-5-55-555-3-33-333-5--5--2-22-222-|
E-------------------3-33-333----------3--2--0-00-000-|

Chorus
E-----------------------------------------------------------|
B-----------------------------------------------------------|
G--5-55-555--7-77-777--------------------5-55-555--7-77-777-|
D--5-55-555--7-77-777-5-55-555-5-55-555--5-55-555--7-77-777-|
A--3-33-333--5-55-555-5-55-555-5-55-555--3-33-333--5-55-555-|
E---------------------3-33-333-3-33-333---------------------|

E-------------------|
B-------------------|
G-------------------|
D-5-55-555-5-55-555-|
A-5-55-555-5-55-555-|
E-3-33-333-3-33-333-|

1st Solo:

E--------------------------------------------------------------------------|
B--------------------------------------------------------------------------|
G--------------------------------------------------------------------------|
D-5-5-5-4-2-0-------------------------------------5-4-2-0-2----------------|
A------------3-2-2-3-33-33-3-33-2-0-2-0--------------------2-3-33-3-20-----|
E---------------------------------------3-2-3-33-3--------------------3-23-|

Verse
E----------------------------------------------------------|
B----------------------------------------------------------|
G------------5-55-555--------------------5-55-555-5-55-555-|
D--5-55-555--5-55-555-5-55-555-5-55-555--5-55-555-5-55-555-|
A--5-55-555--3-33-333-5-55-555-5-55-555--3-33-333-3-33-333-|
E--3-33-333-----------3-33-333-3-33-333--------------------|

E----------------------------------------------------|
B----------------------------------------------------|
G-7-77-777-7-77-777----------5-55-555----------------|
D-7-77-777-7-77-777-5-55-555-5-55-555-5--5--2-22-222-|
A-5-55-555-5-55-555-5-55-555-3-33-333-5--5--2-22-222-|
E-------------------3-33-333----------3--2--0-00-000-|

Chorus
E-----------------------------------------------------------|
B-----------------------------------------------------------|
G--5-55-555--7-77-777--------------------5-55-555--7-77-777-|
D--5-55-555--7-77-777-5-55-555-5-55-555--5-55-555--7-77-777-|
A--3-33-333--5-55-555-5-55-555-5-55-555--3-33-333--5-55-555-|
E---------------------3-33-333-3-33-333---------------------|

E-------------------|
B-------------------|
G-------------------|
D-5-55-555-5-55-555-|
A-5-55-555-5-55-555-|
E-3-33-333-3-33-333-|

2nd Solo:
E--------------------------------------------------------------------------|
B----------------------------------------------7h8-8-7h8-8-7h8---7h8-8-7h8-|
G----------------------------------------------7---7-7---7-7-----7---7-7---|
D--5-5-5-4-2-0-------------------------------------------------------------|
A--------------3-2-2-3-33-33-3-33-2-0-2-0----------------------------------|
E-----------------------------------------3-2------------------------------|

E---------------------------------------------------|
B--8-888--7---5-55-5555----88888888--10------8------|
G--7-777--7---4-44-4444----77777777--9--x8---7-x16--|
D---------------------------------------------------|
A---------------------------------------------------|
E---------------------------------------------------|

Verse
E----------------------------------------------------------|
B----------------------------------------------------------|
G------------5-55-555--------------------5-55-555-5-55-555-|
D--5-55-555--5-55-555-5-55-555-5-55-555--5-55-555-5-55-555-|
A--5-55-555--3-33-333-5-55-555-5-55-555--3-33-333-3-33-333-|
E--3-33-333-----------3-33-333-3-33-333--------------------|

E----------------------------------------------------|
B----------------------------------------------------|
G-7-77-777-7-77-777----------5-55-555----------------|
D-7-77-777-7-77-777-5-55-555-5-55-555-5--5--2-22-222-|
A-5-55-555-5-55-555-5-55-555-3-33-333-5--5--2-22-222-|
E-------------------3-33-333----------3--2--0-00-000-|

Chorus
E-----------------------------------------------------------|
B-----------------------------------------------------------|
G--5-55-555--7-77-777--------------------5-55-555--7-77-777-|
D--5-55-555--7-77-777-5-55-555-5-55-555--5-55-555--7-77-777-|
A--3-33-333--5-55-555-5-55-555-5-55-555--3-33-333--5-55-555-|
E---------------------3-33-333-3-33-333---------------------|

E-------------------|
B-------------------|
G-------------------|
D-5-55-555-5-55-555-|
A-5-55-555-5-55-555-|
E-3-33-333-3-33-333-|

****************************************************************************
16. I'M FROM THERE

Chords: (These are the names I made up for them to be easy)
  C/E A C/F G/B
e--------------|
B--------------|
G--------------|
D--2--2--3-----|
A--3--0--3--2--|
E-----------3--|

Verse 1: (all muted)
C/E                         A
When we were two brothers forever in the dark and light,
           C/F                C/E                 G/B
We had our fights against the world, against each other
C/E                               A
We traveled in the night, so many roads, so many shows together
C/F          C/E   G/B
Far apart we grew, isolated but still together

Verse 2: (all muted)
C/E                         A
When we were two brothers forever in the dark and light,
           C/F               C/E                 G/B
We had our fights against ourselves, against each other
C/E              A 
We were afraid, afraid of so many things
         C/F                  C/E            G/B
It was a fight to overcome ourselves and see clearer

Riff 1:                           x3
e--3-3-3-3-3-3-3-3-3-3-3-3-3-3-3-3--|--0-0-0-0-0-0--1--1-1-1-1-1--|
B--1-1-1-1-1-1-1-1-1-1-1-1-1-1-1-1--|--1-1-1-1-1-1--1--1-1-1-1-1--|
G--0-0-0-0-0-0-0-0-0-0-0-0-0-0-0-0--|--0-0-0-0-0-0--0--0-0-0-0-0--|all x2
D--2-2-2-2-2-2-2-2-2-2-2-2-2-2-2-2--|--2-2-2-2-2-2--2--2-2-2-2-2--|
A--3-3-3-3-3-3-3-3-3-3-3-3-3-3-3-3--|--3-3-3-3-3-3--3--3-3-3-3-3--|
E-----------------------------------|-----------------------------|

Verse 3:(use open chords)
C                   C/A
We are two brothers forever in the dark and light
           C/F                C                   G
We had our fights against the world, against each other
C                                       C/A
Time has opened my heart, I don't wanna hold onto that past
              C/F        C         G
I don't wanna live in isolation anymore

Chorus: (arpeggiate chords with ")
C"              C/F"
There's nothing left to do 
       C"                 C/F"  C"  C/F"  G
but to kiss our lives good-bye

Good Bye...

Riff 2:        x6
e--3-3-3-0--0----|--1-1-1-0--0-1--1-1-0-0-1-1-3--|
B--1-1-1-1--1-1--|--1-1-1-1--1-1--1-1-1-1-1-1-1--|
G--0-0-0-0--0-0--|--0-0-0-0--0-0--0-0-0-0-0-0-0--| all x2
D--2-2-2-2--2-2--|--2-2-2-2--2-2--2-2-2-2-2-2-2--|
A--3-3-3-3--3-3--|--3-3-3-3--3-3--3-3-3-3-3-3-3--|
E----------------|-------------------------------|

Riff x1

Outro:
(C)                        (A)
When we were two brothers forever in the dark and light,
           (F)               (E)                 (G)
We had our fights against ourselves, against each other

Chorus

Riff 2 x2

Riff 1 x2

Solo riff:                        x3                              
e-----------------------------------|------------------1--1-1-1-1-1-1-1--|
B-----------------------------------|------------------------------------|
G----------5-5-------------5-5------|----------5-5-----------------------|x2
D------2-2-----2-2-----2-2-----2-2--|------2-2-----2-2-------------------|
A--3-3---------------3--------------|--3-3-------------------------------|
E-----------------------------------|------------------------------------|




Tap to rate this tab
# A B C D E F G H I J K L M N O P Q R S T U V W X Y Z