Song name
# A B C D E F G H I J K L M N O P Q R S T U V W X Y Z

Bouncing Souls - Private Radio tab

Help us improve GuitareTab! Take a short survey!
intro
e-------------------|
b---8-7-8-7---------|
g-7-----------6-7-9-|
d-7---------7-------|
a-5---------7-------|
E-----------5-------|

verse 1
e---------------------------------|
b---------------------------------|
g-7-7-7-7-7-7-7-7-----------------|
d-7-7-7-7-7-7-7-7-7-7-7-7-7-7-7-7-|
a-5-5-5-5-5-5-5-5-7-7-7-7-7-7-7-7-|
E-----------------5-5-5-5-5-5-5-5-|

verse 2

e-------------------------------------------------|
b-------------------------------------------------|
g-7-7-7-7-7-7-7-7-7-7-7-7-------------------------|
d-7-7-7-7-7-7-7-7-7-7-7-7-7-7-7-7-7-7-7-7-7-7-7-7-|
a-5-5-5-5-5-5-5-5-5-5-5-5-7-7-7-7-7-7-7-7-7-7-7-7-|
E-------------------------5-5-5-5-5-5-5-5-5-5-5-5-|
p.m..   ...   ...   ...   ...   ...   ...   ...

pre-chorus
e---------------------------------------------------------|
b---------------------------------------------------------|
g-----------------7-7-7-7-7-7-7-7-------------------------|
d-5-5-5-5-5-5-5-5-7-7-7-7-7-7-7-7-5-5-5-5-5-5-5-5-7-7-7-7-|
a-5-5-5-5-5-5-5-5-5-5-5-5-5-5-5-5-5-5-5-5-5-5-5-5-7-7-7-7-|
E-3-3-3-3-3-3-3-3-----------------3-3-3-3-3-3-3-3-5-5-5-5-|

chorus
e-----------------|
b-----------------|
g-7---------------|
d-7-------7-------|
a-5-------7-------|
E---------5-------|

bridge
e------------------------------------------------|
b------------------------------------------------|
g-7----------------------------------------------|
d-7-------7------- (on second time play b-*7-----| after the first chord
a-5-------7-------                      g----*7--|
E---------5--------------------------------------|

order:
intro
verse
pre-chorus
intro
verse 2
pre-chorus
chorus
pre-chorus
bridge
chorus
Related for Private Radio tab