Song name
# A B C D E F G H I J K L M N O P Q R S T U V W X Y Z

Bouncing Souls - Toilet Song tab

Help us improve GuitareTab! Take a short survey!
The Toilet Song by the Bouncing Souls
(standard tuning)

|--------------------------|
|--------------------------|
|--------------------------|
|----7-7-7-7-7-7-7-7-7-7-7-|
|--7-5-5-5-5-5-5-5-5-5-5-5-|
|--5-----------------------|

|------------------------------------------------|
|------------------------------------------------|
|------------------------------------------------|
|----9-9-9-9-9-9--5-5-5-5-5--7-7-7-7-7-7-7-7-7-7-|
|-5--7-7-7-7-7-7--3-3-3-3-3--5-5-5-5-5-5-5-5-5-5-|
|-3----------------------------------------------|

Related for Toilet Song tab