Song name
# A B C D E F G H I J K L M N O P Q R S T U V W X Y Z

Bouncing Souls - Pizza Song tab

Verse
Guitar 1 0:08-0:45
E|----------333-333|
B|(1)11-111-333-333|
G|(0)00-000-000-000|
D|(2)22-222-000-000|x10
A|(3)33-333-222-222|
E|----------333-333|
the part in parentheses is not played
the first time

Chorus x2
Guitar 1         1._____________ 2._
                |               |
E|11-111--------|333-333-333-333|-3~|
B|11-111-111-111|333-333-333-333|-3~|
G|22-222-000-000|000-000-000-000|-0~|
D|33-333-222-222|000-000-000-000|-0~|
A|33-333-333-333|222-222-222-222|-2~|
E|11-111--------|333-333-333-333|-3~|

Guitar 2
E|---1~-----0-------3~----------|
B|---1~-----1-------3~----------|
G|---2-----0--------0~----------|
D|--3-----2--------0------------|
A|-3-----3--------2-------------|
E|1--------------3--------------|

Post-Chorus
Guitar 1
E|----------333-333|
B|(1)11-111-333-333|
G|(0)00-000-000-000|
D|(2)22-222-000-000|x2
A|(3)33-333-222-222|
E|----------333-333|

Guitar 2(accordion fill)
E|----------------|
B|1--------3------|
G|--0--------0----|
D|----2--------0--|x2
A|------3--------2|
E|----------------|

Verse 2
E|----------333-333|
B|(1)11-111-333-333|
G|(0)00-000-000-000|
D|(2)22-222-000-000|x8
A|(3)33-333-222-222|
E|----------333-333|

Guitar 2(accordian fill) starts around the 4th and 5th measure
E|----15~~~~~15~~~~~12-----------------------------
B|--15----------------15-13~~~~15~~~~17~~~~15------
G|12------------------------------------------17-16
D|-------------------------------------------------
A|-------------------------------------------------
E|-------------------------------------------------

Chorus 2
Guitar 1
E|11-111--------|333-333-333-333|
B|11-111-111-111|333-333-333-333|
G|22-222-000-000|000-000-000-000|
D|33-333-222-222|000-000-000-000|x2
A|33-333-333-333|222-222-222-222|
E|11-111--------|333-333-333-333|

Guitar 2
E|---1~-----0-------3~----------|
B|---1~-----1-------3~----------|
G|---2-----0--------0~----------|
D|--3-----2--------0------------|x2
A|-3-----3--------2-------------|
E|1--------------3--------------|

Post-Chorus
Guitar 1
E|----------333-333|
B|(1)11-111-333-333|
G|(0)00-000-000-000|
D|(2)22-222-000-000|x2
A|(3)33-333-222-222|
E|----------333-333|

Guitar 2(accordion fill)
E|----------------|
B|1--------3------|
G|--0--------0----|
D|----2--------0--|x2
A|------3--------2|
E|----------------|

Trumpet Solo
Guitar 1
E|-----3~~~~|
B|1~~~~3~~~~|
G|0~~~~0~~~~|
D|2~~~~0~~~~|x4
A|3~~~~2~~~~|
E|-----3~~~~|

(Trumpet Fill)
E|----------------|
B|----------------|
G|-55575--77797\55|
D|------5---------|x2
A|----------------|
E|----------------|

Bridge
Guitar 1
E|--------333-333-111-111-333-333|
B|111-111-333-333-111-111-333-333|
G|000-000-000-000-222-222-000-000|
D|222-222-000-000-333-333-000-000|x5
A|333-333-222-222-333-333-222-222|
E|--------333-333-111-111-333-333|

Guitar 2
E|--------3~~~~~~~1~~~~~~~3~~~~~~|
B|1~~~~~~~3~~~~~~~1~~~~~~~3~~~~~~|
G|0~~~~~~~0~~~~~~~2~~~~~~~0~~~~~~|
D|2~~~~~~~0~~~~~~~3~~~~~~~0~~~~~~|x5
A|3~~~~~~~2~~~~~~~3~~~~~~~2~~~~~~|
E|--------3~~~~~~~1~~~~~~~3~~~~~~|

(Trumpet Fill)
E|----------------|
B|----------------|
G|-55575--77797\55|
D|------5---------|x2
A|----------------|
E|----------------|

Chorus 3
Guitar 1
E|11-111--------|333-333-333-333|
B|11-111-111-111|333-333-333-333|
G|22-222-000-000|000-000-000-000|
D|33-333-222-222|000-000-000-000|x4
A|33-333-333-333|222-222-222-222|
E|11-111--------|333-333-333-333|

I couldn't figure out the accordion fills here

Ending
Guitar 1
E|----------333-333|  |--------333---|
B|(1)11-111-333-333|  |111-111-333-1~|
G|(0)00-000-000-000|  |000-000-000-0~|
D|(2)22-222-000-000|x3|222-222-000-2~|
A|(3)33-333-222-222|  |333-333-222-3~|
E|----------333-333|  |--------333---|

Guitar 2(accordion fill)
E|----------------|  |--------3---------|
B|1--------3------|  |1---------3-----1~|
G|--0--------0----|  |--0---------0-----|
D|----2--------0--|x3|----2---------0---|
A|------3--------2|  |------3-----------|
E|----------------|  |------------------|
Tap to rate this tab
# A B C D E F G H I J K L M N O P Q R S T U V W X Y Z