Song name
# A B C D E F G H I J K L M N O P Q R S T U V W X Y Z

Bouncing Souls - Gold Song tab

I already posted the entire song but here is the solo:
Standard Tuning
Legend:
bp=bend and then pull
b=bend
p=pull
br=bend/release
T=Tremolo pick
/=slide up
\=slide down
w=wah-wah
~=hold note
#b#=bend to

E|------------------------------------|
B|------------------------------------|
G|4-4-7bp4-4-7bp4-7bp4-4-4-7bp4-4-7bp4|
D|------------------------------------|
A|------------------------------------|
E|------------------------------------|

E|7b-7b7b-777-101010-10p7-----------------------------------|
B|------------------------10p7---10p7-----------------------|
G|------------------------------------10-9br-7---7-9br-7---7|
D|---------------------------------------------9---------9--|
A|----------------------------------------------------------|
E|----------------------------------------------------------|

E|------------------------7-10T-7-10T/12T-------------7t-10T-12T-|
B|------------7-10---7-10----------------------7T-10T------------|
G|-----7-9-10----------------------------------------------------|
D|-7-9-----------------------------------------------------------|
A|----------------------------------------\\\\-------------------|
E|---------------------------------------------------------------|

E|18b19~~---------|
B|----------------|
G|----------------|
D|----------------|
A|----------------|
E|---------0wwwwww|
Tap to rate this tab
 
# A B C D E F G H I J K L M N O P Q R S T U V W X Y Z