Song name
# A B C D E F G H I J K L M N O P Q R S T U V W X Y Z

Bouncing Souls - Sounds Of The City tab

Sounds of the City
Standard Tuning

Legend
.=Palm mute
~=hold note

Intro
E|-44444444444444122|
B|-22222222222222222|
G|------------------|
D|------------------|x8
A|------------------|
E|------------------|

Verse
Verse Part 1
E|----------------------------------------------|
B|----------------------------------------------|
G|66-6--66-6--66-6--66-6------------------------|
D|66-6--66-6--66-6--66-6--44-4--44-4--66-6--66-6|x2
A|44-4--44-4--44-4--44-4--44-4--44-4--66-6--66-6|
E|------------------------22-2--22-2--44-4--44-4|
  ..    ..    ..    ..    ..    ..    ..    ..

Verse Part 2
E|-----------------------------------4~|
B|-----------------------------------4~|
G|-----------------------------------5~|
D|44-4--44-4--44-4--44-4--66-6--66-6-6~|
A|44-4--44-4--44-4--44-4--66-6--66-6-6~|
E|22-2--22-2--22-2--22-2--44-4--44-4-4~|
  ..    ..    ..    ..    ..    ..

Chorus-Not Sure about this part
E|-----------------|  |----------------
B|-----------------|  |----------------
G|-----------------|  |----------------
D|-6666666633333333|x3|6666666688888888
A|-4444444444444444|  |4444444466666666
E|-----------------|  |----------------

Repeat Verse Part 1

Verse Part 2 x2
                         1.                     2.
E|----------------------||----------------------|4~|
B|----------------------||----------------------|4~|
G|----------------------||----------------------|5~|
D|44-4--44-4--44-4--44-4||66-6--66-6--66-6--66-6|6~|
A|44-4--44-4--44-4--44-4||66-6--66-6--66-6--66-6|6~|
E|22-2--22-2--22-2--22-2||44-4--44-4--44-4--44-4|4~|
  ..    ..    ..    ..    ..    ..    ..    ..

Chorus
E|----------------------------------------------|
B|----------------------------------------------|
G|66-6--66-6--66-6--66-6------------------------|
D|66-6--66-6--66-6--66-6--44-4--44-4--66-6--66-6|x2
A|44-4--44-4--44-4--44-4--44-4--44-4--66-6--66-6|
E|------------------------22-2--22-2--44-4--44-4|

Post-Chorus
E|-------------------------|
B|------------9---9--------|
G|8---8---8-----8---10---10|
D|--8---8---8----------8---|x4
A|-------------------------|
E|-------------------------|

It Changes Key here

Bridge
E|--|---------------|  |---------------|---------------|
B|--|---------------|  |---------------|---------------|
G|8~|-------------8~|  |----------88-8~|-------------8~|
D|8~|---6~---8~---8~|x3|6~---8~---88-8~|---6~---8~---8~|
A|6~|---6~---8~---6~|  |6~---8~---66-6~|---6~---8~---6~|
E|--|---4~---6~-----|  |4~---6~--------|---4~---6~-----|

E|-------------------------------------------|
B|-------------------------------------------|
G|-------------------------------------------|
D|---6~---8~---------------------------------|
A|---6~---8~---66666666666666-88888888888888-|
E|---4~---6~---44444444444444-66666666666666-|
               .............. ..............

Outro
E|-66666666666666344|
B|-44444444444444444|
G|------------------|
D|------------------|x8
A|------------------|
E|------------------|

End On
E|3~|
B|4~|
G|--|
D|--|
A|--|
E|--|

E|--|
B|--|
G|8~|
D|8~|
A|6~|
E|--|

Bass Fills- I couldn't tell if their was
rhythm in this son because if there is it is 
undistinguishable.  These parts fit in with
the song.

Intro
E|-----------------|
B|-----------------|
G|-6666666666666666|
D|-6666666666666666|x4
A|-4444444444444444|
E|-----------------|

E|-----------------------------------|
B|-----------------------------------|
G|-6666666666666666------------------|
D|-6666666666666666-44444444-66666666|x2
A|-4444444444444444-44444444-66666666|
E|------------------22222222-44444444|

Chorus
E|-----------------------------------|
B|-----------------------------------|
G|-6666666666666666------------------|
D|-6666666666666666-44444444-66666666|x2
A|-4444444444444444-44444444-66666666|
E|------------------22222222-44444444|

Chorus 2
E|-----------------------------------|
B|-----------------------------------|
G|-8888888888888888------------------|
D|-8888888888888888-66666666-88888888|x4
A|-6666666666666666-66666666-88888888|
E|------------------44444444-66666666|
Tap to rate this tab
# A B C D E F G H I J K L M N O P Q R S T U V W X Y Z