Song name
# A B C D E F G H I J K L M N O P Q R S T U V W X Y Z

Bouncing Souls - Letter From Iraq tab

Artist - Bouncing Souls
Album - The Gold Record
2006

Part 1

-------------------------------------------------------------|
------10------------9----------------------------------------|
----9----9---9--------------------11--------------11---------|
--0--------0------9---9---9----11----11---11---11----11---11-|
----------------7-------7----9----------9----9----------9----|
-------------------------------------------------------------|
  Play it 2 times

Part 2

---------------------------------------------------------------------|
------10------------9------------10-----------10-----------10--------|
----9----9---9-----------------9----9---9---9----9---9---9----9---0--|
--0--------0------9---9---9--7--------7---0--------0---0--------0----|
----------------7-------7--------------------------------------------|
---------------------------------------------------------------------|

-----------------|
----9------------|
-------------11--|
--9---9---9--11--|
7-------7-----9--|
-----------------|

That's it! Maybe here are some faults... all questions sent on

skier_912@mail.ru      Artem
Tap to rate this tab
# A B C D E F G H I J K L M N O P Q R S T U V W X Y Z