Song name
# A B C D E F G H I J K L M N O P Q R S T U V W X Y Z

Bouncing Souls - The Screamer tab

the Screamer by the Bouncing Souls
(standard tuning)

|---------------------------|
|---------------7-7---7-8-7-|
|-7-7---7-5---------7-------|
|-----7-----7---------------|
|---------------------------|
|---------------------------|
 3 times

|----------------------------------------------------------|
|-5-5-5--7-7-7--8-8-8--7-7-7-------------------------------|
|----------------------------7-7-7--9-9-9--10-10-10--9-9-9-|
|----------------------------------------------------------|
|----------------------------------------------------------|
|----------------------------------------------------------|
Tap to rate this tab
 
# A B C D E F G H I J K L M N O P Q R S T U V W X Y Z