Song name
# A B C D E F G H I J K L M N O P Q R S T U V W X Y Z

Bouncing Souls - Cracked tab

Cracked by the Bouncing Souls
(standard tuning)

b    bend
r    release from bend
pb   prebend
h    hammer on
p    pull of
/    slide up
\    slide down
x    dead note

|---------|---------------------------------------|
|---------|---------------------------------------|
|---------|---------------------------------------|
|-x-x-x-x-|-7-7-7-7-x-10101010-x-5-5-5-5--7-7-7-7-|
|-x-x-x-x-|-5-5-5-5-x-8-8-8-8--x-3-3-3-3--5-5-5-5-|
|---------|---------------------------------------|
           2 times

|--------------------------------------------------------|
|--------------------------------------------------------|
|--------------------------------------------------------|
|------------------------7--9--10-5--7-7--5--7--7-7--5-5-|
|-5---3---5-5---3---5-5--5--7--8--3--5-5--3--5--5-5--3-3-|
|--------------------------------------------------------|


|-----------------------------------|
|-----------------------------------|
|-----------------------------------|
|-7--9--10-5--7--10-9--7-7--10-9--7-|
|-5--7--8--3--5--8--7--5-5--8--7--5-|
|-----------------------------------|


|--------------------------------------------------|------------------|
|--------------------------------------------------|------------------|
|---------------------------------12----12---------|------------------|
|-7--9--10-5--7--10-9--7-7--10-9--10-10-10-10-9--7-|-7--5--7--7--5--7-|
|-5--7--8--3--5--8--7--5-5--8--7-----8-----8--7--5-|-5--3--5--5--3--5-|
|--------------------------------------------------|------------------|


|------------------------------------------------------------------------
|------------------------------------------------------------------------
|------------------------------------------------------------------------
|-7-7-7-7--7-7-7-7--10101010-10101010-5-5-5-5--5-5-5-5--7-7-7-7--7-7-7-7-
|-5-5-5-5--5-5-5-5--8-8-8-8--8-8-8-8--3-3-3-3--3-3-3-3--5-5-5-5--5-5-5-5-
|------------------------------------------------------------------------


---------------------------------------------------------------------------|
---------------------------------------------------------------------------|
---------------------------------------------------------------------------|
-7-7-7-7--7-7-7-7--10101010-10101010-5-5-5-5--5-5-5-5--7-------------------|
-5-5-5-5--5-5-5-5--8-8-8-8--8-8-8-8--3-3-3-3--3-3-3-3--5-5--3--5-5--3--5-5-|
---------------------------------------------------------------------------|


|--------------------------------------------------|
|--------------------------------------------------|
|---------------------------------12----12---------|
|-7--9--10-5--7--10-9--7-7--10-9--10-10-10-10-9--7-|
|-5--7--8--3--5--8--7--5-5--8--7-----8-----8--7--5-|
|--------------------------------------------------|


|---------------|
|---------------|
|---------------|
|-7--10----10-7-|
|-5--8--10-8--5-|
|-------8-------|
4 times
Tap to rate this tab
# A B C D E F G H I J K L M N O P Q R S T U V W X Y Z