Song name
# A B C D E F G H I J K L M N O P Q R S T U V W X Y Z

Bouncing Souls - Midnight Mile tab

Bouncing Souls
Midnight Mile
Gold Record

I just tabbed it out on GP so here are the text tabs.

Intro
Guitar 2
E|-5-5-5-5-5-5-5-5|
B|----------------|
G|----------------|x6
D|----------------|
A|----------------|
E|----------------|
Guitar 1
E|-----------------------------------------------|
B|-----------------------------------------------|
G|14-14-14-14-14-14-14-14-13-13-13-13-13-13-13-13|
D|-x--x--x--x--x--x--x--x--x--x--x--x--x--x--x--x|x4
A|12-12-12-12-12-12-12-12-12-12-12-12-12-12-12-12|
E|-----------------------------------------------|

Riff 1
E|---------------|
B|---------------|
G|--------7------|
D|-7------7(x16)-|x2
A|-7(x16)-5------|
E|-5-------------|

Riff 2
E|-----------------------|
B|-----------------------|
G|-11------9------7------|
D|-11(x16)-9(x16)-7(x32)-|
A|--9------7------5------|
E|-----------------------|

Repeat Riff 1

Repeat Riff 2

Riff 3
Guitar 1
E|-----------------------------------|
B|-----------------------------------|
G|-14-----13-----14-----11-----9-----|
D|--x(x8)--x(x4)--x(x4)--x(x8)-x(x8)-|x2
A|-12-----12-----12------9-----7-----|
E|-----------------------------------|

Guitar 2
E|---------------|
B|---------------|
G|---------------|
D|--------7------|
A|-7(x16)-5(x16)-|
E|-5-------------|

Repeat Riff 1

Repeat Riff 2

Repeat Riff 1

Repeat Riff 2

Repeat Riff 3

Riff 4
Guitar 1
E|--------------------------------------------|
B|--------------------------------------------|
G|-6-----18-----19-----21-----18------19------|
D|-x(x8)--x(x8)--x(x8)--x(x8)--x(x16)--x(x32)-|
A|-4-----16-----17-----19-----16------17------|
E|--------------------------------------------|

Guitar 2
E|---------------------------------|
B|---------------------------------|
G|---------------------------------|
D|6(x16)-7(x8)-9(x8)-6(x16)-7(x32)-|
A|4------5-----7-----4------5------|
E|---------------------------------|

Repeat Riff 1 x2

Repeat Riff 2 x2

this plays under Riff 2
E|---------17------|
B|----------x(x48)-|
G|-14------14------|
D|--x(x48)---------|
A|-12--------------|
E|-----------------|

Ending
E|------------------|
B|------------------|
G|-11---9-----7-----|
D|-11---9-----7----7|
A|--9---7-----5----7|
E|-----------------5|
Tap to rate this tab
# A B C D E F G H I J K L M N O P Q R S T U V W X Y Z