Song name
# A B C D E F G H I J K L M N O P Q R S T U V W X Y Z

Bourbon Crow - Drink Till You Aint Ugly tab

Tab for the first solo in the song sorry I did not include all the solos. My First
tab so please leave feedback.

Standard Tuning:

-------14~--15p14----14-15/17~--17p15-14-15p14-|
------------------15---------------------------|
-12/14-----------------------------------------|
-----------------------------------------------|
-----------------------------------------------|
-----------------------------------------------|

----14--------------------------------------------|
-17----17-15-17p15-13-15-13/12--------------------|
-------------------------------14-12-14/16~--14~--|
--------------------------------------------------|
--------------------------------------------------|
--------------------------------------------------|

http://www.myspace.com/bourboncrow
Tap to rate this tab
 
# A B C D E F G H I J K L M N O P Q R S T U V W X Y Z