Song name
# A B C D E F G H I J K L M N O P Q R S T U V W X Y Z

Bow Wow Wow - I Want Candy tab

Help us improve GuitareTab! Take a short survey!
----------------------------------------------------------------------------
     I Want Candy - Bow Wow Wow
----------------------------------------------------------------------------
Tabbed by: M. Young
Email:

Tuning: Standard

e|---------------------------------------------------------------------------|
B|---------------------------------------------------------------------------|
G|--------------------9-11-12-11--9-12-11------------------------------------|
D|-----------------------------------------14--12-11-12-14-11-12-------------|
A|--9-9-10-11-12-12----------------------------------------------------------|
E|---------------------------------------------------------------------------|

e|---------------------------------------------------------------------------|
B|---------12----------------------------------------------------------------|
G|--12-14-----14-12-11-12-14-12-11--12-11------------------------------------|
D|-----------------------------------------14-12-11-12-14-11-12--------------|
A|---------------------------------------------------------------------------|
E|---------------------------------------------------------------------------|

e|---------------------------------------------------------------------------|
B|--8-/-10-\-----------8--10-\-----------------------------------------------|
G|--9-/-11-\-----------9--11-\-----------------------------------------------|
D|---------------------------------------------------------------------------|
A|---------------------------------------------------------------------------|
E|---------------------------------------------------------------------------|




| /  slide up
| \  slide down
| h  hammer-on
| p  pull-off
| ~  vibrato
| +  harmonic
| x  Mute note
===============================================================================
Related for I Want Candy tab