Song name
# A B C D E F G H I J K L M N O P Q R S T U V W X Y Z

Bow Wow Wow - I Want Candy tab

Most of the song:
e|--------------------------------------------------------------------------|
B|--------------------------------------------------------------------------|
G|--6-6-6---4-6-------------------------------------------------------------|
D|--6-6-6---4-6-------------------------------------------------------------|
A|--4-4-4---2-4-------------------------------------------------------------|
E|--------------------------------------------------------------------------|

Solo:
e|--------------------------------------------------------------------------|
B|--------------------------------------------------------------------------|
G|--------------------------------------------------------------------------|
D|------------------10--11--13--11--10--11--10------------------------------|
A|--11--11--11--13------------------------------13--11--11h13--10h11--------|
E|--------------------------------------------------------------------------|

e|--------------------------------------------------------------------------|
B|--9--9--11--9--------------9----------------------------------------------|
G|---------------11--10--11-----11--10--11--10------------------------------|
D|----------------------------------------------11--11h13--10h11------------|
A|--------------------------------------------------------------------------|
E|--------------------------------------------------------------------------|
Tap to rate this tab
 
# A B C D E F G H I J K L M N O P Q R S T U V W X Y Z