Song name
# A B C D E F G H I J K L M N O P Q R S T U V W X Y Z

Bowerbirds - Bur Oak tab

                         BUR OAK - Bowerbirds
email: boats@live.ca
tuning: standard (eadgbe)


(Verse, Verse, Chorus, Verse, Chorus)

Verse:
e|-----------------------------------------|
B|---4---4-----2---2-----------------------|
G|---0-----0---0-----0---1---1-----1---1---|
D|-----------------------0-----0---0-----0-|
A|-3---3-----1---1-------------------------|
E|---------------------1---1-----1---1-----|

e|---------------------------------------|
B|-----------------------4--4--3h4---6-4-|
G|---5---5-----4---4-----0----0---0------|
D|---0-----0---3-----3-------------------|
A|---------------------3---3---3---3-----|
E|-4---4-----3---3-----------------------|

e|-----------------------------------------|
B|---6---6-----5---5-----------------------|
G|---0-----0---0-----0---1---1-----1---1---|
D|-----------------------0-----0---0-----0-|
A|-6---6-----3---3-------------------------|
E|---------------------1---1-----1---1-----|

e|---------------------------------------|
B|-----------------------4--4--3h4---6-4-|
G|---5---5-----4---4-----0----0---0------|
D|---0-----0---3-----3-------------------|
A|---------------------3---3---3---3-----|
E|-4---4-----3---3-----------------------|
                                              
e|-----------------------------------------|   x2
B|---4---4---------------------------------|
G|---0-----0---5---5-----5---5-----5---5---|
D|-------------5-----5---5-----5---5-----5-|
A|-3---3-----------------------------------|
E|-----------4---4-----4---4-----4---4-----|

e|-----------------------------------------|
B|---4---4-----3---3-----3---3-----3---3---|
G|---0-----0---0-----0---1-----1---1-----1-|
D|-----------------------------------------|
A|-3---3-----1---1-----1---1-----1---1-----|
E|-----------------------------------------|

e|-----------------------------------------|
B|-----------------------------------------|
G|---5---5-----5---5-----5---5-----5---5---|
D|---0-----0---3-----3---5-----5---5-----5-|
A|-----------------------------------------|
E|-4---4-----4---4-----4---4-----4---4-----|

e|-----------------------------------------|
B|-----------------------------------------|
G|---5---5-----5---5-----5---5-------5-----|
D|---0-----0---3-----3---5-----5---6-------|
A|-----------------------------------------|
E|-6---6-----6---6-----6---6-----6---------|

Chorus:

e|------6--------------4-4---------8----------6-----------4-4-|
B|--8----8-----4----4----4---9------9------6------4----4----4-|
G|---8-----8---5--5--5---5----10------10---7------5--5--5---5-|
D|----8---------------6--6------10----------8------------6--6-| x4
A|-6---6--6--------------6--8-----8--8----------------------6-|
E|-----------4---4--4----4---------------6---6--4---4--4----4-|

e|-----------------------------------x---x---x-|
B|------4-------3-------3-------3----3---3---3-|
G|---0---0---0---0---0---0---1---1---1---1---1-|
D|-----------------------------------x---x---x-|
A|-3---3---2---2---1---1---1---1---1---1---1---|
E|---------------------------------------------|



http://www.bowerbirds.org/


| /  slide up
| \  slide down
| h  hammer-on
| p  pull-off
| ~  vibrato
| +  harmonic
| x  Mute note
===============
Tap to rate this tab
# A B C D E F G H I J K L M N O P Q R S T U V W X Y Z