Song name
# A B C D E F G H I J K L M N O P Q R S T U V W X Y Z

Bowerbirds - In Our Talons tab

----------------------------------------------------------------------------
			  IN OUR TALONS - Bowerbirds
----------------------------------------------------------------------------

Tuning: Standard

There are two main chords in this song that are played through the verses.
They are:

e|----x----------x-------|
B|----3----------3-------|
G|----4---and----4-------|
D|----4----------4-------|
A|----2----------x-------|
E|----x----------3-------|

The strumming pattern is easy if you listen.

In the chorus, these patterns are played:

e|----------0-----------0---|
B|----------2-----------2---|
G|------3-----------3-------|
D|----4-----------4---------|
A|--------------------------|
E|--2-----2-----2-----2-----|

e|----------2-----------2---|
B|----------0-----------0---|
G|------4-----------4-------|
D|----4-----------4---------|
A|--------------------------|
E|--3-----3-----3-----3-----|

e|----------2-----------2---|
B|------2-----------2-------|
G|----------4-----------4---|
D|----4-----------4---------|
A|--0-----0-----0-----0-----|
E|--------------------------|

e|--------2---------2-------|
B|--------3---------3-------|
G|------2---------4---------|
D|--0--------0--------------|
A|------------2-------------|
E|--------------------------|

e|--------------------------|
B|------3-----3-----3-----3-|
G|--------------------------|
D|----4-----4-----4-----4---|
A|--2-----0-----------------|
E|--------------3-----3-----|

e|----------0-----------0---|
B|----------2-----------2---|
G|------3-----------3-------|
D|----4-----------4---------|
A|--------------------------|
E|--2-----2-----2-----2-----|

And then back to the chords.
I hope that was easy to understand. Just listen to the picking patterns and when they 
in the chorus to keep up with the song.
Tap to rate this tab
 
# A B C D E F G H I J K L M N O P Q R S T U V W X Y Z