Bowerbirds - Hooves tab

First real tab. This sounds pretty good to me.
I simplified the finger picking a little to make it easier to tab out.

intro/verse
|------------------------|------------------------|
|-------------1------1---|----1---1-------1---1---|
|-----------3----------3-|----2-----2-----2-----2-|
|---0-----0------0-2-----|-1--1--1-----1--1--1----|
|------------------------|------------------------|
|-3-----3----------------|------------------------|

|-------------------|---------------------|
|---3---3----3---3--|---1----1----1----1--|
|---3----3---3----3-|---2-----2---2-----2-|
|-------------------|---------------------|
|-1---1----1---1----|-0----0----0----0----|
|-------------------|---------------------|

I'm pretty sure the chorus is just some variations of these power chords.

|-----|---------------------------|
|-----|---------------------------|
|-5---|--3------------------------|
|-5---|--3---------3-------5------|
|-3---|--1---------3-------5------|
|-----|------------1-------3------|
 Aaaah   Aaaaah    Burns   Heart
         hooves    lead    forest
Tap to rate this tab
 
# A B C D E F G H I J K L M N O P Q R S T U V W X Y Z