Song name
# A B C D E F G H I J K L M N O P Q R S T U V W X Y Z

Bowie David - Width Of A Circle tab

Hey... This is the only part of the song i have heard of... so.

e:---------------------------------------|
B:---------------------------------------|
G:---------------------------------------| with low distorsion
D:---------------------------------------|
A:-7-7-7-5-4-5-5-5-4-2-4-4-4-2-0-2-2-2/7-|
E:---------------------------------------|

After 1 time an acustic, without distorsion, come in like this:

e:-7-7-5-4-5-5-4-2-4-4-2-0-4-4-4---|
B:-7-7-5-4-5-5-4-2-4-4-2-0-4-4-4---|
G:-9-9-7-6-7-7-6-4-6-6-4-2-4-4-4-9-| And then the drums come... thats the 
D:-9-9-7-6-7-7-6-4-6-6-4-2-4-4-4-9-| I have.
A:-7-7-5-4-5-5-4-2-4-4-2-0-2-2-2/7-|
E:---------------------------------|
Tap to rate this tab
 
# A B C D E F G H I J K L M N O P Q R S T U V W X Y Z