Song name
# A B C D E F G H I J K L M N O P Q R S T U V W X Y Z

Bowie David - Heroes tab

-------------------------------------------------------------------------------
			     Heroes- Shinedown
-------------------------------------------------------------------------------
Tabbed by:Moonlightdemon
Tabbed everything except solo. 

Tuning:Drop D

e|-------------------------------------------------------------------------------------------------|
B|-------------------------------------------------------------------------------------------------|
G|-------------------------------------------------------------------------------------------------|
D|-------------------------------------------------------------------------------------------------|
A|-------------------------------------------------------------------------------------------------|
D|-------0-15-17-17b-15----------------------------------------------------------------------------|

e|-------------------------------------------------------------------------------------------------|
B|-------------------------------------------------------------------------------------------------|
G|-------------------------------------------------------------------------------------------------|
D|-------------------------------------------------------------------------------------------------|
A|-------------------------------------------------------------------------------------------------|
D|-0-10-12-0-10-12-0-10-12-0-10-12-0-10-12b----0-10-12-0-10-12-0-10-12-----0-3-5-5b-3--------------|

e|-------------------------------------------------------------------------------------------------|
B|-------------------------------------------------------------------------------------------------|
G|-------------------------------------------------------------------------------------------------|
D|-------------------------------------------------------------------------------------------------|
A|-------------------------------------------------------------------------------------------------|
D|-0-10-12-0-10-12-0-10-12-0-10-12-0-10-12b-----0-10-12-0-10-12-0-10-12----0-15-17-17b-15----------|

e|-------------------------------------------------------------------------------------------------|
B|-------------------------------------------------------------------------------------------------|
G|-------------------------------------------------------------------------------------------------|
D|-------------------------------------------------------------------------------------------------|
A|-------------------------------------------------------------------------------------------------|
D|-0-10-12-0-10-12-0-10-12-0-10-12-0-10-12b----0-10-12-0-10-12-0-10-12-----0-3-5-5b-3--------------|

e|------------------------------------------------------------------------------------------------|
B|------------------------------------------------------------------------------------------------|
G|------------------------------------------------------------------------------------------------|
D|-12---12----12-12-10----8-----------------------12---12---12-12-10----8-------------------------|
A|-12---12----12-12-10----8-----------------------12---12---12-12-10----8-------------------------|
D|-12---12----12-12-10----8----8-8-8-8--0-3-5-----12---12---12-12-10----8----0-3-5-5b-3-----------|

e|------------------------------------------------------------------------------------------------|
B|------------------------------------------------------------------------------------------------|
G|------------------------------------------------------------------------------------------------|
D|------------------------------------------------------------------------------------------------|
A|------------------------------------------------------------------------------------------------|
D|0-10-12-0-10-12-0-10-12-0-10-12-0-10-12b-----0-10-12-0-10-12-0-10-12----0-15-17-17b-15----------|


e|------------------------------------------------------------------------------------------------|
B|------------------------------------------------------------------------------------------------|
G|------------------------------------------------------------------------------------------------|
D|------------------------------------------------------------------------------------------------|
A|------------------------------------------------------------------------------------------------|
D|-0-10-12-0-10-12-0-10-12-0-10-12-0-10-12b----0-10-12-0-10-12-0-10-12-----0-3-5-5b-3----------=--|

e|------------------------------------------------------------------------------------------------|
B|------------------------------------------------------------------------------------------------|
G|-------------------------------------------------------------------10101010/99/141414-----------|
D|-10/12-12-12---10-----3/5-5-5--3----3---------10/12-12-12---10------x-x-x-x/xx/-x-x-x-----------|
A|-10/12-12-12---10-----3/5-5-5--3----3---------10/12-12-12---10------8-8-8-8/77/121212-----------|
D|-10/12-12-12---10-----3/5-5-5--3----3---------10/12-12-12---10----------------------------------|

e|------------------------------------------------------------------------------------------------|
B|------------------------------------------------------------------------------------------------|
G|-7-7-7--7-7-----5-5--3--3-3-------7-7-7---7-7---------------------------------------------------|
D|-7-7-6--6-6-----5-5--3--3-3-------7-7-6---6-6----3-3--55555-------------------------------------|
A|-5-5-5--5-5-----3-3--1--1-1-------5-5-5---5-5----3-3--55555-------------------------------------|
D|-5-5-5--5-5-----------------------5-5-5---5-5----3-3--55555-------------------------------------|

e|------------------------------------------------------------------------------------------------|
B|------------------------------------------------------------------------------------------------|
G|-7-7-7--7-7----5-5--3--3-3---3-3-3-3-3-3-3-3--5555566666----------------------------------------|
D|-7-7-6--6-6----5-5--3--3-3---3-3-3-3-3-3-3-3--5555566666----------------------------------------|
A|-5-5-5--5-5----3-3--1--1-1---1-1-1-1-1-1-1-1--3333344444----------------------------------------|
D|-5-5-5--5-5-------------------------------------------------------------------------------------|

e|------------------------------------------------------------------------------------------------|
B|------------------------------------------------------------------------------------------------|
G|------------------------------------------------------------------------------------------------|
D|------------------------------------------------------------------------------------------------|
A|---------------------------------------------------------0---8/3--3--8/2--2--1111---------------|
D|-----0-10-12-0-10-12-0-10-12-0-10-12-0-10-12b----0-10----0--------------------------0-3h5-------|

e|------------------------------------------------------------------------------------------------|
B|------------------------------------------------------------------------------------------------|
G|------------------------------------------------------------------------------------------------|
D|------------------------------------------------------------------------------------------------|
A|-------------0---8/3--3--8/2--2-----------------------------------------------------------------|
D|-------------0---------------------0-3-5-5b-3---------------------------------------------------|

e|------------------------------------------------------------------------------------------------|
B|------------------------------------------------------------------------------------------------|
G|------------------------------------------------------------------------------------------------|
D|------------------------------------------------------------------------------------------------|
A|------------------------------------------------------------------------------------------------|
D|-0-10-12-0-10-12-0-10-12-0-10-12-0-10-12b-----0-10-12-0-10-12-0-10-12----0-15-17-17b-15---------|

e|------------------------------------------------------------------------------------------------|
B|------------------------------------------------------------------------------------------------|
G|------------------------------------------------------------------------------------------------|
D|------------------------------------------------------------------------------------------------|
A|------------------------------------------------------------------------------------------------|
D|-0-10-12-0-10-12-0-10-12-0-10-12-0-10-12b----0-10-12-0-10-12-0-10-12-----0-3-5-5b-3-------------|

e|------------------------------------------------------------------------------------------------|
B|------------------------------------------------------------------------------------------------|
G|------------------------------------------------------------------10101010/99/141414------------|
D|-10/12-12-12---10-----3/5-5-5--3----3---------10/12-12-12---10-----x-x-x-x/xx/-x-x-x------------|
A|-10/12-12-12---10-----3/5-5-5--3----3---------10/12-12-12---10-----8-8-8-8/77/121212------------|
D|-10/12-12-12---10-----3/5-5-5--3----3---------10/12-12-12---10----------------------------------|

e|------------------------------------------------------------------------------------------------|
B|------------------------------------------------------------------------------------------------|
G|-7-7-7--7-7-----5-5--3--3-3-------7-7-7---7-7---------------------------------------------------|
D|-7-7-6--6-6-----5-5--3--3-3-------7-7-6---6-6----3-3--55555-------------------------------------|
A|-5-5-5--5-5-----3-3--1--1-1-------5-5-5---5-5----3-3--55555-------------------------------------|
D|-5-5-5--5-5-----------------------5-5-5---5-5----3-3--55555-------------------------------------|

e|------------------------------------------------------------------------------------------------|
B|------------------------------------------------------------------------------------------------|
G|-7-7-7--7-7----5-5--3--3-3---3-3-3-3-3-3-3-3--5555566666----------------------------------------|
D|-7-7-6--6-6----5-5--3--3-3---3-3-3-3-3-3-3-3--5555566666----------------------------------------|
A|-5-5-5--5-5----3-3--1--1-1---1-1-1-1-1-1-1-1--3333344444----------------------------------------|
D|-5-5-5--5-5-------------------------------------------------------------------------------------|

*This is played along with the solo*

|-------------------------------------------------------------------------------------------------|
B|------------------------------------------------------------------------------------------------|
G|------------------------------------------------------------------------------------------------|
D|--0-0---333333-0----3x3--5---3x3--0---5555-3h5-3---33333-0--3x3--5------------------------------|
A|--0-0---333333-0----3x3--5---3x3--0---5555-3h5-3---33333-0--3x3--5------------------------------|
D|--0-0---333333-0----3x3--5---3x3--0---5555-3h5-3---33333-0--3x3--5------------------------------|


e|------------------------------------------------------------------------------------------------|
B|------------------------------------------------------------------------------------------------|
G|-33333--333--55555---7-7-7----------------------------------------------------------------------|
D|-33333--333--55555---7-7-7----------------------------------------------------------------------|
A|-11111--111--33333---5-5-5----------------------------------------------------------------------|
D|------------------------------------------------------------------------------------------------|
*End solo*

e|------------------------------------------------------------------------------------------------|
B|------------------------------------------------------------------------------------------------|
G|-7-7-7--7-7-----5-5--3--3-3-------7-7-7---7-7---------------------------------------------------|
D|-7-7-6--6-6-----5-5--3--3-3-------7-7-6---6-6----3-3--5-----------------------------------------|
A|-5-5-5--5-5-----3-3--1--1-1-------5-5-5---5-5----3-3--5-----------------------------------------|
D|-5-5-5--5-5-----------------------5-5-5---5-5----3-3--5-----------------------------------------|

e|------------------------------------------------------------------------------------------------|
B|------------------------------------------------------------------------------------------------|
G|-7-7-7--7-7----5-5--3--3-3---3-3-3-3-3-3-3-3--5555566666----------------------------------------|
D|-7-7-6--6-6----5-5--3--3-3---3-3-3-3-3-3-3-3--5555566666----------------------------------------|
A|-5-5-5--5-5----3-3--1--1-1---1-1-1-1-1-1-1-1--3333344444----------------------------------------|
D|-5-5-5--5-5-------------------------------------------------------------------------------------|

e|------------------------------------------------------------------------------------------------|
B|------------------------------------------------------------------------------------------------|
G|------------------------------------------------------------------------------------------------|
D|------------------------------------------------------------------------------------------------|
A|------------------------------------------------------------------------------------------------|
D|-0-10-12-0-10-12-0-10-12-0-10-12-0-10-12b----0-10-12-0-10-12-0-10-12-0-10-12-0-10-12b-----------|


e|------------------------------------------------------------------------------------------------|
B|------------------------------------------------------------------------------------------------|
G|------------------------------------------------------------------------------------------------|
D|------------------------------------------------------------------------------------------------|
A|------------------------------------------------------------------------------------------------|
D|-0-10-12-0-10-12-0-10-12-0-10-12-0-10-12b----0-10-12-0-10-12-0-10-12-----0-3-5-5b-3-------------|



| /  slide up
| \  slide down
| h  hammer-on
| p  pull-off
| ~  vibrato
| +  harmonic
| x  Mute note
===============================================================================
Tap to rate this tab
 
# A B C D E F G H I J K L M N O P Q R S T U V W X Y Z