Song name
# A B C D E F G H I J K L M N O P Q R S T U V W X Y Z

Bowling For Soup - Thespian tab

-----------------------------------------------------------------
Thespian - Bowling For Soup
-----------------------------------------------------------------
Tabbed by: Bair
Email: bair_morritt@hotmail.com
Tuning: Standard

**I've been looking for this tab forever and finally did it myself**

Intro:
Part1
e|-----------------------------------------------|
B|-----------------------------------------------|
G|-----7777--4--5555-----7777--4--5-4-2----------|
D|--5--7777--4--5555--5--7777--4--5-4-2--5-(X3)--|
A|--5--5555--2--3333--5--5555--2--4-2-0--5-------|
E|--3-----------------5------------------3-------|

Part2
e|------------------------------------------|
B|------------------------------------------|
G|-----7777--4--5555--7--5------------------|
D|--5--7777--4--5555--7--5--5---------------|
A|--5--5555--2--3333--5--3--5---------------|
E|--3-----------------------3---------------|

Verse:
e|--------------|
B|--------------|
G|-----4--9--5--|
D|--5--4--9--5--|
A|--5--2--7--3--|
E|--3-----------|
"Met her just today...."

e|-----------------------------------------------|
B|-----------------------------------------------|
G|------------44444444--99999999--55555555-------|
D|--55555555--44444444--99999999--55555555-(X3)--|
A|--55555555--22222222--77777777--33333333-------|
E|--33333333-------------------------------------|
"She told me her name, I said thats my favorite song...."

Chorus:
e|-----------------------------------------------|
B|-----------------------------------------------|
G|------------77777777--44444444--55555555-------|
D|--55555555--77777777--44444444--55555555-(X4)--|
A|--55555555--55555555--22222222--33333333-------|
E|--33333333-------------------------------------|
"All the while I'm thinking that I cant believe...."

Lead Guitar part:
e|--10---10---10---10---10---10---10--------|
B|-----8----8----8----8----8----8----8------|
G|------------------------------------------|
D|------------------------------------------|
A|------------------------------------------|
E|------------------------------------------|

-Then Verse
-Then Chorus
-Then BASS interlude part
-Then Chorus
-Then Verse
-Then Chorus
-Then Verse until end
Tap to rate this tab
 
# A B C D E F G H I J K L M N O P Q R S T U V W X Y Z