Guitaretab - guitar tabs
Song name
# A B C D E F G H I J K L M N O P Q R S T U V W X Y Z

Bowling For Soup - Captain Hook tab

-----------------------------------------------------------------
Captain Hook - Bowling For Soup
-----------------------------------------------------------------
Tabbed by: Bair
Email: bair_morritt@hotmail.com
Tuning: Standard


Intro:
e|------------------------------------------|
B|------------------------------------------|
G|--7777-------------------------7----------|
D|--7777--5555--77777777--5-5-7--7-(X4)-----|
A|--5555--5555--77777777--5-5-7--5----------|
E|--------3333--55555555--3-3-5-------------|


"She looks at me and my world stops."


Verse:
e|------------------------------------------|
B|------------------------------------------|
G|--7777--------5555--7777------------7-----|
D|--7777--7777--5555--7777--55555555--7-----|
A|--5555--7777--3333--5555--55555555--5-----|
E|--------5555--------------33333333--------|
"I've got to let her know...."

e|----------------------------|
B|----------------------------|
G|--7777--------5555--7777----|
D|--7777--7777--5555--7777----|
A|--5555--7777--3333--5555----|
E|--------5555----------------|
"Cause I may never find...."

Chorus:
e|------------------------------------------------|
B|------------------------------------------------|
G|--------------5555--7777--------------77777777--|
D|--5555--7777--5555--7777--5555--7777--77777777--|
A|--5555--7777--3333--5555--5555--7777--55555555--|
E|--3333--5555--------------3333--5555------------|
"No I don't know what to say when I'm around you...."

e|-------------------------------|
B|-------------------------------|
G|--------------5555--7777-------|
D|--5555--7777--5555--7777-(X2)--|
A|--5555--7777--3333--5555-------|
E|--3333--5555-------------------|
"You must know the way i fell by the way...."

Riff1:
e|-------------------------------|
B|-------------------------------|
G|-----777------55-------7777-7--|
D|--5--777--77--55-(X4)--7777-7--|
A|--5--555--77--33-------5555-5--|
E|--3-------55-------------------|

-Then Verse
-Then Chorus
-Then Riff1
[ Tab from: http://www.guitaretab.com/b/bowling-for-soup/102728.html ]
Interlude:
e|---------------------------------|
B|---------------------------------|
G|--4444--------------77-----------|
D|--4444--4444--5555--77-77-(X4)---|
A|--2222--4444--5555--55-77--------|
E|--------2222--3333-----55--------|
"She tells me that I am the one...."

Riff2:
e|--------------------------------------------|
B|--------------------------------------------|
G|--4-----------77----------999------77-------|
D|--4--444--55--77-(X4)--7--999--99--77-(X4)--|
A|--2--444--55--55-------7--777--99--55-------|
E|-----222--33-----------5-------77-----------|

e|----------------|
B|----------------|
G|--------9-------|
D|--7777--9-------|
A|--7777--7-------|
E|--5555----------|
"She looks at me and my world, STOPS"

Verse2:
e|------------------------------------------|
B|------------------------------------------|
G|--9999--------7777--9999------------9-----|
D|--9999--9999--7777--9999--77777777--9-----|
A|--7777--9999--5555--7777--77777777--7-----|
E|--------7777--------------55555555--------|
"I've got to let her know...."

e|----------------------------|
B|----------------------------|
G|--9999--------7777--9999----|
D|--9999--9999--7777--9999----|
A|--7777--9999--5555--7777----|
E|--------7777----------------|
"Cause I may never find...."

Chorus2:
e|------------------------------------------------|
B|------------------------------------------------|
G|--------------7777--9999--------------99999999--|
D|--7777--9999--7777--9999--7777--9999--99999999--|
A|--7777--9999--5555--7777--7777--9999--77777777--|
E|--5555--7777--------------5555--7777------------|
"No I don't know what to say when I'm around you...."

e|--------------------------------|
B|--------------------------------|
G|--------------7777--9999--------|
D|--7777--9999--7777--9999-(X2)---|
A|--7777--9999--5555--7777--------|
E|--5555--7777--------------------|
"You must know the way i fell by the way...."

Outro:
e|----------------------------|
B|----------------------------|
G|-----999------77------------|
D|--7--999--99--77-(X4)--7----|
A|--7--777--99--55-------7----|
E|--5-------77-----------5----|
Related for Captain Hook tab
Advertisement will be closed in 10 seconds