Song name
# A B C D E F G H I J K L M N O P Q R S T U V W X Y Z

Bowling For Soup - Kool-aid tab

Help us improve GuitareTab! Take a short survey!
-----------------------------------------------------------------
Kool-Aid - Bowling For Soup
-----------------------------------------------------------------
Tabbed by: Bair
Email: bair_morritt@hotmail.com
Tuning: Standard


Intro:
JUST DRUMS
"Sittin' all by myself just thinkin'"

Verse:
e|-----------------------------------|
B|-----------------------------------|
G|------------------------4444-------|
D|--(Pick-Slide)--44--22--4444-(X2)--|
A|----------------44--22--2222-------|
E|----------------22--00-------------|
"Now I'm lyin' awake in bed...."

e|--------------------|---------------------|
B|--------------------|---------------------|
G|--4444444444444444--|----------4444-------| X2
D|--4444444444444444--|--44--22--4444-(X2)--|
A|--2222222222222222--|--44--22--2222-------|
E|--------------------|--22--00-------------|
"Tell myself, Hey man you should know better"

e|-----------------------------------|
B|-----------------------------------|
G|--------------44444444-------------|
D|--4444--2222--44444444-(X4)--------|
A|--4444--2222--22222222-------------|
E|--2222--0000-----------------------|
"Don't blame me for buttin' in...."

Chorus:
e|----------------------------------------------------|
B|----------------------------------------------------|
G|--7777--------------4-5--7777-----------------------|
D|--7777--7777--5555--4-5--7777--7777--55555555-(X2)--|
A|--5555--7777--5555--2-3--5555--7777--55555555-------|
E|--------5555--3333-------------5555--33333333-------|
"But everythings fine, I don't know why I do this...."

-Then Verse
-Then Chorus

Interlude:
e|----------------------------------|
B|----------------------------------|
G|--777-----------------------------|
D|--777--777--55555555-(X4)---------|
A|--555--777--55555555--------------|
E|-------555--33333333--------------|

-Then Chorus X2
Related for Kool-aid tab