Song name
# A B C D E F G H I J K L M N O P Q R S T U V W X Y Z

Bowling For Soup - Wisk tab

-----------------------------------------------------------------
Wisk - Bowling For Soup
-----------------------------------------------------------------
Album: Rock On Honorable Ones!!!

Tabbed by: Bair
Email: bair_morritt@hotmail.com
Tuning: Standard

**Wasnt attempted yet, so now it has been..99% correct**

Verse:
e|-------------------------------------------------------|
B|-------------------------------------------------------|
G|--7777-------------4-5-7--7777-------------4-2-7-------|
D|--7777--7777--5555-4-5-7--7777--7777--5555-4-2-7-(X4)--|
A|--5555--7777--5555-2-3-5--5555--7777--5555-2-0-5-------|
E|--------5555--3333--------------5555--3333-------------|
"She was just 17 and she, she was a loser."

Chorus:
e|------------------------------------------|
B|------------------------------------------|
G|------------------------------------------|
D|--5555--7777--5555--7777--5555--77--------|
A|--5555--7777--5555--7777--5555--77--------|
E|--3333--5555--3333--5555--3333--55--------|
"She's a loser and she thinks we all abuse her."

-Then Verse
-Then Chorus

Interlude:
e|---------------------------------------------|
B|---------------------------------------------|
G|--7-------------7----------------------------|
D|--7--7--9--5-7--7--7--9-(Let-Ring)--555-777--|
A|--5--7--9--5-7--5--7--9-------------555-777--|
E|-----5--7--3-5-----5--7-------------333-555--|
"She's a thorn in my side and she stole my daddys ride"

e|------------------------------------------------------|
B|------------------------------------------------------|
G|--7777---------------------7777-----------------------|
D|--7777--7777--9999--55-77--7777--7777--9999--555-777--|
A|--5555--7777--9999--55-77--5555--7777--9999--555-777--|
E|--------5555--7777--33-55--------5555--7777--333-555--|
"I just tried to be a friend, now I don't know how this ends"

-Then Verse
-Then Chorus
-Then Verse
-Then Chorus
-Then Interlude
Tap to rate this tab
# A B C D E F G H I J K L M N O P Q R S T U V W X Y Z