Song name
# A B C D E F G H I J K L M N O P Q R S T U V W X Y Z

Bowling For Soup - Hang On tab

Hang On

D C G
D C
I used to see you every morning
G D
Even when I didn't want to
D C
You used to like to watch us play downtown
G D
As long as I sang a song for you
CHORUS
G D
But nothing stays the same
C D
And it's drivin' me insane
E C D
Oh, you know we've got it so bad
G D
And nothing you can say
C D
Can make me want to stay
E C D
But still you're hangin' on
e----------------------------------------------------------------------|
b----------------------------------------------------------------------|
g-14-14-14-16-14-14--14-16-14-14--12-12-12-11-12-11-12-11--------------|
d---------------------------------------------------------12-----------|
a----------------------------------------------------------------------|
e----------------------------------------------------------------------|
D C
You say you never saw this comin'
G D
So why does it always fall on you
D C
I think you call me every time you see a phone
G D
You hang but I know its you
e-----------------------|
b-----------------------|
g-----------------------|
d-----------------------|
a-5-7-9-10-9-7-5--- X 3-|
e-----------------------|
e-----------------------|
b-----------------------|
g-----------------------|
d-----------------------|
a-12-10-9-10-12-10-9----|
e-----------------------|
Tap to rate this tab
# A B C D E F G H I J K L M N O P Q R S T U V W X Y Z