Song name
# A B C D E F G H I J K L M N O P Q R S T U V W X Y Z

Bowling For Soup - Live It Up tab

this is live it up by bowling for soup. its not perfect butit sounds fine and is fun to play.


intro/verse/outro
E|----------------------------------|
B|----------------------------------|
G|--7--9-9--7--9-9--7--9-9--5--5-5--|
D|--7--9-9--7--9-9--7--9-9--5--5-5--|
A|--5--7-7--5--7-7--5--7-7--3--3-3--|
E|----------------------------------|


pre chorus
E|-------------------------|
B|-------------------------|
G|--777777--9--7777777--9--|
D|--777777--9--7777777--9--|
A|--555555--7--5555555--7--|
E|-------------------------|


chorus
E|-------------------------------------------------------------------|
B|-------------------------------------------------------------------|
G|--7-7-7-7-7-7-7-7-6-6-6-6-6-6-6-6----------------------------------|
D|--7-7-7-7-7-7-7-7-6-6-6-6-6-6-6-6-9-9-9-9-9-9-9-9-7-7-7-7-7-7-7-7--|
A|--5-5-5-5-5-5-5-5-4-4-4-4-4-4-4-4-9-9-9-9-9-9-9-9-7-7-7-7-7-7-7-7--|
E|----------------------------------7-7-7-7-7-7-7-7-5-5-5-5-5-5-5-5--|



bridge
E|-----------------------------------|
B|-----------------------------------|
G|-----------------------------------|
D|--4-4-4-4-4-4-4-4-5-5-5-5-5-5-5-5--|
A|--4-4-4-4-4-4-4-4-5-5-5-5-5-5-5-5--|
E|--2-2-2-2-2-2-2-2-3-3-3-3-3-3-3-3--|

with each section you must repeat as nessicarry.

order:

intro
verse
pre chorus
chorus
verse
pre chorus
chorus
bridge
verse (with no guitar)
chorus
outro

enjoy!
Tap to rate this tab
# A B C D E F G H I J K L M N O P Q R S T U V W X Y Z