Song name
# A B C D E F G H I J K L M N O P Q R S T U V W X Y Z

Bowling For Soup - Epiphany tab

-------------------------------------------------------------------------------
			     Epiphany - Bowling For Soup
-------------------------------------------------------------------------------
Tabbed by: Matt Mostovac
Email:smagedhammer_91@hotmail.com

Great song from their new album, i think there are a few things wrong with the chorus 
the bridge, not too sure.

Tuning: Standard (E,A,D,G,B,E)

INTRO:
Guitar 1
e|-------7--------------------|-------7--------------------|
B|-9-7-9---9-7-9---10-9-7-9---|-9-7-9---9-7-9---10-9-7-----|
G|---------------9----------9-|---------------9--------8-9-|
D|----------------------------|----------------------------|
A|----------------------------|----------------------------|
E|----------------------------|----------------------------|

Guitar 2 (Strumming Pattern: 1&2&3&4& - for every chord)
e|----------------------------|----------------------------|
B|----------------------------|----------------------------|
G|-9--------------------------|-9--------------------------|
D|-9-----9------7------9------|-9-----9------7------9------|
A|-7-----9------7------9------|-7-----9------7------9------|
E|-------7------5------7------|-------7------5------7------|

VERSE:
e|----------------------------|----------------------------|------|
B|----------------------------|----------------------------|------|
G|-9--------------------------|-9--------------------------|--9---|
D|-9------------7-------------|-9------------7-------------|--9---|
A|-7------------7-------------|-7------------7-------------|--7---|
E|--------------5-------------|--------------5-------------|------|
  "stop before you..."         "im not exactly..."

e|------------------|----------------|
B|------------------|----------------|
G|------------------|----------------|
D|-9----------------|--7-------------|
A|-9----------------|--7-------------|
E|-7----------------|--5-------------|
pm ..................................
  "theres more..."   "maybe i should..."

PRE CHORUS: (clean)
e|---------------------|---------------------|
B|---------------------|---------------------|
G|-9999----------------|-9999----------------|
D|-9999-9999-7777-9999-|-9999-9999-7777-7777-|
A|-7777-9999-7777-9999-|-7777-9999-7777-9999-|
E|------7777-5555-7777-|------7777-5555-7777-|
 "theres a picture..."  "theres a song..."

e|------------------|-------------|--------|
B|------------------|-------------|--------|
G|------------------|-------------|--------|
D|-7-77-7-77-7-77-7-|-9-99-9-99-9-|-9------|
A|-7-77-7-77-7-77-7-|-9-99-9-99-9-|-9------|
E|-5-55-5-55-5-55-5-|-7-77-7-77-7-|-7------|
pm   ..   ..   ..       ..   ..      (stop)
  "think they..."    "epiphany"     "and thats a big word"
                                            
(the other guitar plays this lead part over ^)
E|-7---7---7---7----|-9---9---9---9--|
B|---5---5---5---5--|---7---7---7----|
G|------------------|----------------|
D|------------------|----------------|
A|------------------|----------------|
E|------------------|----------------|

CHORUS:
e|---------------------------------|
B|---------------------------------|
G|---------4-4-4-4---------4-4-4-4-|
D|-2-2-2-2-4-4-4-4-7-7-7-7-4-4-4-4-|
A|-2-2-2-2-2-2-2-2-7-7-7-7-2-2-2-2-|
E|-0-0-0-0---------5-5-5-5---------|  x2
  "all i ever..."

e|----------|---------|
B|----------|---------|
G|----------|-44------|
D|-22-------|-44------|
A|-22-------|-22------|
E|-00-------|---------|
             "empty as a..."

e|-----------------|-----------------|----------|
B|-----------------|-----------------|----------|
G|-----------------|-----------------|-4-4-4-4--|
D|-2-2-2-2-2-2-2-2-|-7-7-7-7-7-7-7-7-|-4-4-4-4--| (stop)
A|-2-2-2-2-2-2-2-2-|-7-7-7-7-7-7-7-7-|-2-2-2-2--|
E|-0-0-0-0-0-0-0-0-|-5-5-5-5-5-5-5-5-|----------|
  "broken"          "car, if you..."  "come out..."  

INTRO

VERSE

(Here is the lead part Chris plays at one point)
E|--------------------------------------------------------------------|
B|---------------------------------------9\7p5h7p5/9------------------|
G|--------------------------------------------------------------------|
D|--------------------------------------------------------------------|
A|--------------------------------------------------------------------|
E|--------------------------------------------------------------------|
  "try so hard...wish i could forget"

PRE CHORUS

CHORUS

INTRO (first part only!!!)

BRIDGE: x2
e|-----------------|
B|-----------------|
G|-----------------|
D|-4-4-4-4-6-6-6-6-|
A|-4-4-4-4-6-6-6-6-|
E|-2-2-2-2-4-4-4-4-|
  "are you still at home..."

Bridge 2: x2
e|--------------------------------------|
B|--------------------------------------|
G|--------------------------------------|
D|-4-xx-4-xx-4-xx-4-xx-6-xx-6-xx-6-xx-6-|
A|-4-xx-4-xx-4-xx-4-xx-6-xx-6-xx-6-xx-6-|
E|-2-xx-2-xx-2-xx-2-xx-4-xx-4-xx-4-xx-4-|
  "showing on the..."

e|------------|
B|------------|
G|-9----------|
D|-9--9--7--9-|
A|-7--9--7--9-| (let it ring)
E|----7--5--7-|
 "its a shame now..."

CHORUS

OUTRO:
same as intro

END:
e|-----------------|
B|-----------------|
G|-----------------|
D|-8-7-8-7-8-7--9--|
A|-8-7-8-7-8-7--9--|
E|-6-5-6-5-6-5--7--| (let last chord ring)


Thats it! Enjoy.
Email me if you find any mistakes with it. Please rate and leave a comment.
Thanks.

| .  palm mute
| /  slide up
| \  slide down
| h  hammer-on
| p  pull-off
| ~  vibrato
| +  harmonic
| x  Mute note

---------------------------------------------------------------------------
Heres a copy of the Lyrics too:

Stop before you get me started
Maybe I'll just go
I'm not exactly broken hearted
I think you already know
That there's more to the story that I'm givin' up
Maybe I should just grow up

There's a picture of a girl somewhere
That fits this empty frame
And there's a song here somewhere with a happier refrain
It came to me, I think they call it an epiphany
Man that's a big word

Ch:
All I ever wanted was a little extra ordinary
Somewhat documented
And depicted in this book of memories
That's as empty as a broken glass,
Or a gas tank in my car
If you can hear me now,
Come out, come out, wherever you are,wherever you are

I try so hard not to remember
which I could forget
The thoughts of you in syndication
Just like the time I met Joan Jett
At a Grammy party on a Saturday night
After you and me had a big fight

There's a picture of a boy somewhere that fits your empty frame
I tried switching the station,
But the song remains the same
It came to me, think they call it an epiphany
That line was lame

Ch:
All I ever wanted was a little extra ordinary
Somewhat documented
And depicted in this book of memories
That's as empty as a broken glass
Or a gas tank in my car
If you can hear me now,
Come out, come out, wherever you are

Brsdg
Are you still at home?
Or did you go to Rome?
I swear I think I saw you on some Italian movie
Showing on the plane
I couldn't read your name
Subtitles don't work on the credits,
Man that's a shame
it's a shame 'bout me and you
No one to blame but, you

Ch:
All I ever wanted was a little extra ordinary(x2)
Somewhat documented
And depicted in this book of memories


If you can hear me now,
If you could hear him now,
If you can hear me now,
Come out, come out, wherever you are
Wherever you are oh yeah

===============================================================================
Tap to rate this tab
# A B C D E F G H I J K L M N O P Q R S T U V W X Y Z