Song name
# A B C D E F G H I J K L M N O P Q R S T U V W X Y Z

Bowling For Soup - Friends Like You tab

listen to the song to figure out each part.

intro / interrupt
|-----------------------|
|-----------------------|
|-----------------------|
|-7-7-7-x-x-x-x--x--x-x-|
|-7-7-7-x-x-x-x--x--x-x-|
|-5-5-5-x-x-x-x--x--x-x-|

verse
|-----------------|------------------|
|-----------------|------------------|
|---------7-7-9-9-|---------7-7------|
|-7-7-7-7-7-7-9-9-|-7-7-7-7-7-7-9-9--|
|-7-7-7-7-5-5-7-7-|-7-7-7-7-5-5-9-9--|
|-5-5-5-5---------|-5-5-5-5-----7-7--|
			[3rd]
pre-chorus
|---------------------------------|-------------------------|------------------|
|---------------------------------|-------------------------|------------------|
|-----------------4-4-4-4---------|-----------------9-9-9-9-|-7-7-7-7-9-9-9-9--|
|-4-4-4-4-7-7-7-7-4-4-4-4-4-4-4-4-|-4-4-4-4-7-7-7-7-9-9-9-9-|-7-7-7-7-9-9-9-9--|
|-4-4-4-4-7-7-7-7-2-2-2-2-4-4-4-4-|-4-4-4-4-7-7-7-7-7-7-7-7-|-5-5-5-5-7-7-7-7--|
|-2-2-2-2-5-5-5-5---------2-2-2-2-|-2-2-2-2-5-5-5-5---------|------------------|

chorus
|------------------|
|------------------|
|-7-7-7-7-9-9-9-9--|
|-7-7-7-7-9-9-9-9--|
|-5-5-5-5-7-7-7-7--|
|------------------|

bridge
|------------------------------------------|
|------------------------------------------|
|-7-7-7-7-9-9-9-9--------------------------|
|-7-7-7-7-9-9-9-9-7-7-7-7-7-7-4-4-4-2-2-2--|
|-5-5-5-5-7-7-7-7-7-7-7-7-7-7-4-4-4-2-2-2--|
|-----------------5-5-5-4-4-4-2-2-2-0-0-0--|

by: azz
email: azwan082@yahoo.com
Tap to rate this tab
# A B C D E F G H I J K L M N O P Q R S T U V W X Y Z